ISO-10303-21;
HEADER;
FILE_DESCRIPTION (( 'STEP AP203' ),
    '1' );
FILE_NAME ('321738.step',
    '2021-12-02T12:57:08',
    ( '' ),
    ( '' ),
    'SwSTEP 2.0',
    'SolidWorks 2019',
    '' );
FILE_SCHEMA (( 'CONFIG_CONTROL_DESIGN' ));
ENDSEC;

DATA;
#1 = ORIENTED_EDGE ( 'NONE', *, *, #9, .F. ) ;
#2 = EDGE_CURVE ( 'NONE', #99, #99, #82, .T. ) ;
#3 = ORIENTED_EDGE ( 'NONE', *, *, #228, .T. ) ;
#4 = LOCAL_TIME ( 13, 57, 8.000000000000000000, #56 ) ;
#5 = CIRCLE ( 'NONE', #109, 1.999999999999992228 ) ;
#6 = DATE_TIME_ROLE ( 'creation_date' ) ;
#7 = SECURITY_CLASSIFICATION ( '', '', #231 ) ;
#8 = DIRECTION ( 'NONE',  ( -4.275831445896958607E-31, -1.000000000000000000, -1.224646799147353207E-16 ) ) ;
#9 = EDGE_CURVE ( 'NONE', #181, #181, #5, .T. ) ;
#10 = DIRECTION ( 'NONE',  ( -3.491481338843133355E-15, 1.224646799147353207E-16, -1.000000000000000000 ) ) ;
#11 = PLANE ( 'NONE',  #131 ) ;
#12 = FACE_BOUND ( 'NONE', #154, .T. ) ;
#13 = FACE_OUTER_BOUND ( 'NONE', #94, .T. ) ;
#14 = PERSON_AND_ORGANIZATION_ROLE ( 'creator' ) ;
#15 = EDGE_LOOP ( 'NONE', ( #33 ) ) ;
#16 = APPROVAL_PERSON_ORGANIZATION ( #193, #197, #118 ) ;
#17 = EDGE_LOOP ( 'NONE', ( #225 ) ) ;
#18 = ADVANCED_FACE ( 'NONE', ( #20, #91 ), #222, .T. ) ;
#19 = ADVANCED_BREP_SHAPE_REPRESENTATION ( '321738', ( #232, #235, #130 ), #88 ) ;
#20 = FACE_OUTER_BOUND ( 'NONE', #134, .T. ) ;
#21 = PERSON_AND_ORGANIZATION ( #178, #74 ) ;
#22 = ORIENTED_EDGE ( 'NONE', *, *, #9, .T. ) ;
#23 = CIRCLE ( 'NONE', #151, 2.560000000000035136 ) ;
#24 = VERTEX_POINT ( 'NONE', #161 ) ;
#25 = CARTESIAN_POINT ( 'NONE',  ( -9.235795923137575204E-31, 3.239481130549663449E-32, -2.645237086158324402E-16 ) ) ;
#26 = CIRCLE ( 'NONE', #62, 2.000000000000000888 ) ;
#27 = DIRECTION ( 'NONE',  ( -3.491481338843133355E-15, 1.224646799147353207E-16, -1.000000000000000000 ) ) ;
#28 = DIRECTION ( 'NONE',  ( -3.491481338843133355E-15, 1.224646799147353207E-16, -1.000000000000000000 ) ) ;
#29 = FACE_OUTER_BOUND ( 'NONE', #110, .T. ) ;
#30 = PERSON_AND_ORGANIZATION ( #178, #74 ) ;
#31 = CC_DESIGN_SECURITY_CLASSIFICATION ( #7, ( #143 ) ) ;
#32 = ORIENTED_EDGE ( 'NONE', *, *, #84, .F. ) ;
#33 = ORIENTED_EDGE ( 'NONE', *, *, #84, .T. ) ;
#34 = APPROVAL_PERSON_ORGANIZATION ( #132, #218, #224 ) ;
#35 = ORIENTED_EDGE ( 'NONE', *, *, #103, .F. ) ;
#36 = CALENDAR_DATE ( 2021, 2, 12 ) ;
#37 = ORIENTED_EDGE ( 'NONE', *, *, #167, .T. ) ;
#38 = CONICAL_SURFACE ( 'NONE', #174, 2.560000000000035136, 0.5235987755983005920 ) ;
#39 = DIRECTION ( 'NONE',  ( 0.0000000000000000000, 0.0000000000000000000, 1.000000000000000000 ) ) ;
#40 = APPROVAL_DATE_TIME ( #115, #218 ) ;
#41 = LOCAL_TIME ( 13, 57, 8.000000000000000000, #51 ) ;
#42 = CARTESIAN_POINT ( 'NONE',  ( 2.793185071074506684E-13, 1.199807826129472128E-32, 80.00000000000000000 ) ) ;
#43 = DIRECTION ( 'NONE',  ( 4.275831445896958607E-31, 1.000000000000000000, 1.224646799147353454E-16 ) ) ;
#44 = CLOSED_SHELL ( 'NONE', ( #153, #114, #125, #18, #187 ) ) ;
#45 = DIRECTION ( 'NONE',  ( 3.491481338843133355E-15, -1.224646799147353207E-16, 1.000000000000000000 ) ) ;
#46 = CARTESIAN_POINT ( 'NONE',  ( 4.189777606611760026E-14, -1.469576158976823947E-15, 12.00000000000000000 ) ) ;
#47 = DIRECTION ( 'NONE',  ( 4.275831445896958607E-31, 1.000000000000000000, 1.224646799147353207E-16 ) ) ;
#48 = CARTESIAN_POINT ( 'NONE',  ( 0.0000000000000000000, 0.0000000000000000000, 0.0000000000000000000 ) ) ;
#49 = PERSON_AND_ORGANIZATION_ROLE ( 'design_supplier' ) ;
#50 = CC_DESIGN_PERSON_AND_ORGANIZATION_ASSIGNMENT ( #213, #139, ( #7 ) ) ;
#51 = COORDINATED_UNIVERSAL_TIME_OFFSET ( 1, 0, .AHEAD. ) ;
#52 = EDGE_LOOP ( 'NONE', ( #35 ) ) ;
#53 = AXIS2_PLACEMENT_3D ( 'NONE', #216, #28, #43 ) ;
#54 = AXIS2_PLACEMENT_3D ( 'NONE', #172, #92, #60 ) ;
#55 = EDGE_LOOP ( 'NONE', ( #116 ) ) ;
#56 = COORDINATED_UNIVERSAL_TIME_OFFSET ( 1, 0, .AHEAD. ) ;
#57 = APPLICATION_CONTEXT ( 'configuration controlled 3d designs of mechanical parts and assemblies' ) ;
#58 = CALENDAR_DATE ( 2021, 2, 12 ) ;
#59 = UNCERTAINTY_MEASURE_WITH_UNIT (LENGTH_MEASURE( 1.000000000000000082E-05 ), #212, 'distance_accuracy_value', 'NONE');
#60 = DIRECTION ( 'NONE',  ( 0.0000000000000000000, 1.000000000000000000, 0.0000000000000000000 ) ) ;
#61 = CC_DESIGN_DATE_AND_TIME_ASSIGNMENT ( #138, #223, ( #7 ) ) ;
#62 = AXIS2_PLACEMENT_3D ( 'NONE', #124, #104, #183 ) ;
#63 = DIRECTION ( 'NONE',  ( 3.491481338843133355E-15, -1.224646799147353207E-16, 1.000000000000000000 ) ) ;
#64 = DIRECTION ( 'NONE',  ( 0.0000000000000000000, 1.000000000000000000, 0.0000000000000000000 ) ) ;
#65 = DIRECTION ( 'NONE',  ( 0.0000000000000000000, 1.000000000000000000, 0.0000000000000000000 ) ) ;
#66 = CARTESIAN_POINT ( 'NONE',  ( -4.617897961568787602E-31, 1.619740565274831724E-32, -1.322618543079162201E-16 ) ) ;
#67 = CARTESIAN_POINT ( 'NONE',  ( 4.189777606611760026E-14, 2.560000000000034248, 12.00000000000000000 ) ) ;
#68 = ADVANCED_FACE ( 'NONE', ( #117 ), #195, .T. ) ;
#69 = CARTESIAN_POINT ( 'NONE',  ( 1.396592535537252159E-15, -4.898587196589408145E-17, 0.3999999999999996336 ) ) ;
#70 = CALENDAR_DATE ( 2021, 2, 12 ) ;
#71 = APPLICATION_CONTEXT ( 'configuration controlled 3d designs of mechanical parts and assemblies' ) ;
#72 = AXIS2_PLACEMENT_3D ( 'NONE', #237, #10, #219 ) ;
#73 = EDGE_LOOP ( 'NONE', ( #169 ) ) ;
#74 = ORGANIZATION ( 'UNSPECIFIED', 'UNSPECIFIED', '' ) ;
#75 = COORDINATED_UNIVERSAL_TIME_OFFSET ( 1, 0, .AHEAD. ) ;
#76 = DATE_AND_TIME ( #70, #106 ) ;
#77 = FACE_OUTER_BOUND ( 'NONE', #112, .T. ) ;
#78 = CC_DESIGN_APPROVAL ( #218, ( #7 ) ) ;
#79 = CARTESIAN_POINT ( 'NONE',  ( 4.189777606611760026E-14, 1.919692521807202425E-32, 12.00000000000000000 ) ) ;
#80 = AXIS2_PLACEMENT_3D ( 'NONE', #66, #89, #163 ) ;
#81 = CARTESIAN_POINT ( 'NONE',  ( 0.0000000000000000000, 2.160000000000033893, 0.0000000000000000000 ) ) ;
#82 = CIRCLE ( 'NONE', #119, 2.560000000000035136 ) ;
#83 = DIRECTION ( 'NONE',  ( 4.275831445896958607E-31, 1.000000000000000000, 1.224646799147353207E-16 ) ) ;
#84 = EDGE_CURVE ( 'NONE', #101, #101, #214, .T. ) ;
#85 = DIRECTION ( 'NONE',  ( -3.491481338843133355E-15, 1.224646799147353207E-16, -1.000000000000000000 ) ) ;
#86 = DATE_AND_TIME ( #206, #226 ) ;
#87 = APPROVAL_STATUS ( 'not_yet_approved' ) ;
#88 =( GEOMETRIC_REPRESENTATION_CONTEXT ( 3 ) GLOBAL_UNCERTAINTY_ASSIGNED_CONTEXT ( ( #59 ) ) GLOBAL_UNIT_ASSIGNED_CONTEXT ( ( #212, #96, #207 ) ) REPRESENTATION_CONTEXT ( 'NONE', 'WORKASPACE' ) );
#89 = DIRECTION ( 'NONE',  ( -3.491481338843133355E-15, 1.224646799147353207E-16, -1.000000000000000000 ) ) ;
#90 = ORIENTED_EDGE ( 'NONE', *, *, #2, .T. ) ;
#91 = FACE_BOUND ( 'NONE', #17, .T. ) ;
#92 = DIRECTION ( 'NONE',  ( -3.491481338843133355E-15, 1.224646799147353207E-16, -1.000000000000000000 ) ) ;
#93 = DATE_AND_TIME ( #58, #111 ) ;
#94 = EDGE_LOOP ( 'NONE', ( #32 ) ) ;
#95 = APPLICATION_PROTOCOL_DEFINITION ( 'international standard', 'config_control_design', 1994, #71 ) ;
#96 =( NAMED_UNIT ( * ) PLANE_ANGLE_UNIT ( ) SI_UNIT ( $, .RADIAN. ) );
#97 = AXIS2_PLACEMENT_3D ( 'NONE', #79, #63, #148 ) ;
#98 = CYLINDRICAL_SURFACE ( 'NONE', #190, 1.999999999999996669 ) ;
#99 = VERTEX_POINT ( 'NONE', #67 ) ;
#100 = ADVANCED_FACE ( 'NONE', ( #13 ), #146, .T. ) ;
#101 = VERTEX_POINT ( 'NONE', #203 ) ;
#102 = DIRECTION ( 'NONE',  ( -4.275831445896958607E-31, -1.000000000000000000, -1.224646799147353207E-16 ) ) ;
#103 = EDGE_CURVE ( 'NONE', #165, #165, #164, .T. ) ;
#104 = DIRECTION ( 'NONE',  ( -3.491481338843133355E-15, 1.224646799147353207E-16, -1.000000000000000000 ) ) ;
#105 = APPROVAL ( #150, 'UNSPECIFIED' ) ;
#106 = LOCAL_TIME ( 13, 57, 8.000000000000000000, #176 ) ;
#107 = CALENDAR_DATE ( 2021, 2, 12 ) ;
#108 = PERSON_AND_ORGANIZATION_ROLE ( 'design_owner' ) ;
#109 = AXIS2_PLACEMENT_3D ( 'NONE', #210, #113, #192 ) ;
#110 = EDGE_LOOP ( 'NONE', ( #90 ) ) ;
#111 = LOCAL_TIME ( 13, 57, 8.000000000000000000, #75 ) ;
#112 = EDGE_LOOP ( 'NONE', ( #3 ) ) ;
#113 = DIRECTION ( 'NONE',  ( -3.491481338843133355E-15, 1.224646799147353207E-16, -1.000000000000000000 ) ) ;
#114 = ADVANCED_FACE ( 'NONE', ( #12, #145 ), #38, .T. ) ;
#115 = DATE_AND_TIME ( #36, #41 ) ;
#116 = ORIENTED_EDGE ( 'NONE', *, *, #141, .T. ) ;
#117 = FACE_OUTER_BOUND ( 'NONE', #55, .T. ) ;
#118 = APPROVAL_ROLE ( '' ) ;
#119 = AXIS2_PLACEMENT_3D ( 'NONE', #208, #135, #191 ) ;
#120 = SHAPE_DEFINITION_REPRESENTATION ( #234, #19 ) ;
#121 = CARTESIAN_POINT ( 'NONE',  ( 2.779219145719134403E-13, 1.999999999999991340, 79.60000000000000853 ) ) ;
#122 = DIRECTION ( 'NONE',  ( 4.275831445896958607E-31, 1.000000000000000000, 1.224646799147353207E-16 ) ) ;
#123 = PRODUCT_RELATED_PRODUCT_CATEGORY ( 'detail', '', ( #170 ) ) ;
#124 = CARTESIAN_POINT ( 'NONE',  ( 2.779219145719134403E-13, -9.748188521212932624E-15, 79.60000000000000853 ) ) ;
#125 = ADVANCED_FACE ( 'NONE', ( #236, #126 ), #98, .T. ) ;
#126 = FACE_OUTER_BOUND ( 'NONE', #189, .T. ) ;
#127 = CARTESIAN_POINT ( 'NONE',  ( 4.528433298674860075E-14, 1.999999999999990452, 12.96994845223864345 ) ) ;
#128 = CC_DESIGN_PERSON_AND_ORGANIZATION_ASSIGNMENT ( #133, #14, ( #143 ) ) ;
#129 = PERSON_AND_ORGANIZATION ( #178, #74 ) ;
#130 = AXIS2_PLACEMENT_3D ( 'NONE', #48, #39, #243 ) ;
#131 = AXIS2_PLACEMENT_3D ( 'NONE', #42, #85, #122 ) ;
#132 = PERSON_AND_ORGANIZATION ( #178, #74 ) ;
#133 = PERSON_AND_ORGANIZATION ( #178, #74 ) ;
#134 = EDGE_LOOP ( 'NONE', ( #152 ) ) ;
#135 = DIRECTION ( 'NONE',  ( -3.491481338843133355E-15, 1.224646799147353207E-16, -1.000000000000000000 ) ) ;
#136 = EDGE_LOOP ( 'NONE', ( #1 ) ) ;
#137 = CC_DESIGN_PERSON_AND_ORGANIZATION_ASSIGNMENT ( #149, #49, ( #143 ) ) ;
#138 = DATE_AND_TIME ( #107, #4 ) ;
#139 = PERSON_AND_ORGANIZATION_ROLE ( 'classification_officer' ) ;
#140 = CONICAL_SURFACE ( 'NONE', #168, 2.160000000000033893, 0.7853981633974502774 ) ;
#141 = EDGE_CURVE ( 'NONE', #180, #180, #147, .T. ) ;
#142 = CLOSED_SHELL ( 'NONE', ( #184, #100, #68, #205 ) ) ;
#143 = PRODUCT_DEFINITION_FORMATION_WITH_SPECIFIED_SOURCE ( 'ANY', '', #170, .NOT_KNOWN. ) ;
#144 = FACE_OUTER_BOUND ( 'NONE', #15, .T. ) ;
#145 = FACE_OUTER_BOUND ( 'NONE', #73, .T. ) ;
#146 = PLANE ( 'NONE',  #97 ) ;
#147 = CIRCLE ( 'NONE', #220, 2.160000000000033893 ) ;
#148 = DIRECTION ( 'NONE',  ( -4.275831445896958607E-31, -1.000000000000000000, -1.224646799147353207E-16 ) ) ;
#149 = PERSON_AND_ORGANIZATION ( #178, #74 ) ;
#150 = APPROVAL_STATUS ( 'not_yet_approved' ) ;
#151 = AXIS2_PLACEMENT_3D ( 'NONE', #69, #162, #221 ) ;
#152 = ORIENTED_EDGE ( 'NONE', *, *, #167, .F. ) ;
#153 = ADVANCED_FACE ( 'NONE', ( #29 ), #239, .F. ) ;
#154 = EDGE_LOOP ( 'NONE', ( #22 ) ) ;
#155 = APPROVAL_STATUS ( 'not_yet_approved' ) ;
#156 = COORDINATED_UNIVERSAL_TIME_OFFSET ( 1, 0, .AHEAD. ) ;
#157 = AXIS2_PLACEMENT_3D ( 'NONE', #202, #179, #8 ) ;
#158 = DIRECTION ( 'NONE',  ( -3.491481338843133355E-15, 1.224646799147353207E-16, -1.000000000000000000 ) ) ;
#159 = CC_DESIGN_APPROVAL ( #105, ( #143 ) ) ;
#160 = FACE_OUTER_BOUND ( 'NONE', #211, .T. ) ;
#161 = CARTESIAN_POINT ( 'NONE',  ( 1.396592535537253342E-15, 2.560000000000035136, 0.3999999999999999667 ) ) ;
#162 = DIRECTION ( 'NONE',  ( -3.491481338843133355E-15, 1.224646799147353207E-16, -1.000000000000000000 ) ) ;
#163 = DIRECTION ( 'NONE',  ( 4.275831445896958607E-31, 1.000000000000000000, 1.224646799147353207E-16 ) ) ;
#164 = CIRCLE ( 'NONE', #72, 1.600000000000000977 ) ;
#165 = VERTEX_POINT ( 'NONE', #238 ) ;
#166 = MECHANICAL_CONTEXT ( 'NONE', #57, 'mechanical' ) ;
#167 = EDGE_CURVE ( 'NONE', #242, #242, #26, .T. ) ;
#168 = AXIS2_PLACEMENT_3D ( 'NONE', #25, #45, #102 ) ;
#169 = ORIENTED_EDGE ( 'NONE', *, *, #2, .F. ) ;
#170 = PRODUCT ( '321738', '321738', '', ( #166 ) ) ;
#171 = PRODUCT_DEFINITION ( 'UNKNOWN', '', #143, #173 ) ;
#172 = CARTESIAN_POINT ( 'NONE',  ( 2.793185071074506684E-13, -9.797174393178826052E-15, 80.00000000000000000 ) ) ;
#173 = DESIGN_CONTEXT ( 'detailed design', #71, 'design' ) ;
#174 = AXIS2_PLACEMENT_3D ( 'NONE', #46, #27, #65 ) ;
#175 = ORIENTED_EDGE ( 'NONE', *, *, #228, .F. ) ;
#176 = COORDINATED_UNIVERSAL_TIME_OFFSET ( 1, 0, .AHEAD. ) ;
#177 = APPROVAL_ROLE ( '' ) ;
#178 = PERSON ( 'UNSPECIFIED', 'UNSPECIFIED', 'UNSPECIFIED', ('UNSPECIFIED'), ('UNSPECIFIED'), ('UNSPECIFIED') ) ;
#179 = DIRECTION ( 'NONE',  ( 3.491481338843133355E-15, -1.224646799147353207E-16, 1.000000000000000000 ) ) ;
#180 = VERTEX_POINT ( 'NONE', #81 ) ;
#181 = VERTEX_POINT ( 'NONE', #127 ) ;
#182 = DIRECTION ( 'NONE',  ( -3.491481338843133355E-15, 1.224646799147353207E-16, -1.000000000000000000 ) ) ;
#183 = DIRECTION ( 'NONE',  ( 0.0000000000000000000, 1.000000000000000000, 0.0000000000000000000 ) ) ;
#184 = ADVANCED_FACE ( 'NONE', ( #144, #160 ), #199, .T. ) ;
#185 = PERSON_AND_ORGANIZATION_ROLE ( 'creator' ) ;
#186 = DIRECTION ( 'NONE',  ( -3.491481338843133355E-15, 1.224646799147353207E-16, -1.000000000000000000 ) ) ;
#187 = ADVANCED_FACE ( 'NONE', ( #217 ), #11, .F. ) ;
#188 = APPROVAL_DATE_TIME ( #76, #197 ) ;
#189 = EDGE_LOOP ( 'NONE', ( #37 ) ) ;
#190 = AXIS2_PLACEMENT_3D ( 'NONE', #215, #182, #83 ) ;
#191 = DIRECTION ( 'NONE',  ( 0.0000000000000000000, 1.000000000000000000, 0.0000000000000000000 ) ) ;
#192 = DIRECTION ( 'NONE',  ( 0.0000000000000000000, 1.000000000000000000, 0.0000000000000000000 ) ) ;
#193 = PERSON_AND_ORGANIZATION ( #178, #74 ) ;
#194 = ORIENTED_EDGE ( 'NONE', *, *, #141, .F. ) ;
#195 = PLANE ( 'NONE',  #80 ) ;
#196 = APPLICATION_PROTOCOL_DEFINITION ( 'international standard', 'config_control_design', 1994, #57 ) ;
#197 = APPROVAL ( #155, 'UNSPECIFIED' ) ;
#198 = CC_DESIGN_DATE_AND_TIME_ASSIGNMENT ( #86, #6, ( #171 ) ) ;
#199 = CYLINDRICAL_SURFACE ( 'NONE', #53, 2.560000000000035136 ) ;
#200 = FACE_BOUND ( 'NONE', #227, .T. ) ;
#201 = CARTESIAN_POINT ( 'NONE',  ( -9.235795923137575204E-31, 3.239481130549663449E-32, -2.645237086158324402E-16 ) ) ;
#202 = CARTESIAN_POINT ( 'NONE',  ( 4.189777606611760026E-14, 1.919692521807202425E-32, 12.00000000000000000 ) ) ;
#203 = CARTESIAN_POINT ( 'NONE',  ( 4.189777606611760026E-14, 2.560000000000034248, 12.00000000000000000 ) ) ;
#204 = CARTESIAN_POINT ( 'NONE',  ( 4.189777606611760026E-14, -1.469576158976823947E-15, 12.00000000000000000 ) ) ;
#205 = ADVANCED_FACE ( 'NONE', ( #77, #200 ), #140, .T. ) ;
#206 = CALENDAR_DATE ( 2021, 2, 12 ) ;
#207 =( NAMED_UNIT ( * ) SI_UNIT ( $, .STERADIAN. ) SOLID_ANGLE_UNIT ( ) );
#208 = CARTESIAN_POINT ( 'NONE',  ( 4.189777606611760026E-14, -1.469576158976823947E-15, 12.00000000000000000 ) ) ;
#209 = AXIS2_PLACEMENT_3D ( 'NONE', #204, #186, #64 ) ;
#210 = CARTESIAN_POINT ( 'NONE',  ( 4.528433298674860075E-14, -1.588360585714022195E-15, 12.96994845223864345 ) ) ;
#211 = EDGE_LOOP ( 'NONE', ( #175 ) ) ;
#212 =( LENGTH_UNIT ( ) NAMED_UNIT ( * ) SI_UNIT ( .MILLI., .METRE. ) );
#213 = PERSON_AND_ORGANIZATION ( #178, #74 ) ;
#214 = CIRCLE ( 'NONE', #209, 2.560000000000035136 ) ;
#215 = CARTESIAN_POINT ( 'NONE',  ( 0.0000000000000000000, 0.0000000000000000000, 0.0000000000000000000 ) ) ;
#216 = CARTESIAN_POINT ( 'NONE',  ( 0.0000000000000000000, 0.0000000000000000000, 0.0000000000000000000 ) ) ;
#217 = FACE_OUTER_BOUND ( 'NONE', #52, .T. ) ;
#218 = APPROVAL ( #87, 'UNSPECIFIED' ) ;
#219 = DIRECTION ( 'NONE',  ( 0.0000000000000000000, 1.000000000000000000, 0.0000000000000000000 ) ) ;
#220 = AXIS2_PLACEMENT_3D ( 'NONE', #201, #158, #47 ) ;
#221 = DIRECTION ( 'NONE',  ( 4.513898307157521848E-31, 1.000000000000000000, 1.270549420881433006E-16 ) ) ;
#222 = CONICAL_SURFACE ( 'NONE', #54, 1.600000000000000977, 0.7853981633974512766 ) ;
#223 = DATE_TIME_ROLE ( 'classification_date' ) ;
#224 = APPROVAL_ROLE ( '' ) ;
#225 = ORIENTED_EDGE ( 'NONE', *, *, #103, .T. ) ;
#226 = LOCAL_TIME ( 13, 57, 8.000000000000000000, #156 ) ;
#227 = EDGE_LOOP ( 'NONE', ( #194 ) ) ;
#228 = EDGE_CURVE ( 'NONE', #24, #24, #23, .T. ) ;
#229 = APPROVAL_DATE_TIME ( #93, #105 ) ;
#230 = CC_DESIGN_PERSON_AND_ORGANIZATION_ASSIGNMENT ( #21, #185, ( #171 ) ) ;
#231 = SECURITY_CLASSIFICATION_LEVEL ( 'unclassified' ) ;
#232 = MANIFOLD_SOLID_BREP ( 'Corps-Déplacer/Copier1[1]', #44 ) ;
#233 = CC_DESIGN_APPROVAL ( #197, ( #171 ) ) ;
#234 = PRODUCT_DEFINITION_SHAPE ( 'NONE', 'NONE',  #171 ) ;
#235 = MANIFOLD_SOLID_BREP ( 'Corps-Déplacer/Copier1[2]', #142 ) ;
#236 = FACE_OUTER_BOUND ( 'NONE', #136, .T. ) ;
#237 = CARTESIAN_POINT ( 'NONE',  ( 2.793185071074506684E-13, -9.797174393178826052E-15, 80.00000000000000000 ) ) ;
#238 = CARTESIAN_POINT ( 'NONE',  ( 2.793185071074506684E-13, 1.599999999999991207, 80.00000000000000000 ) ) ;
#239 = PLANE ( 'NONE',  #157 ) ;
#240 = APPROVAL_PERSON_ORGANIZATION ( #30, #105, #177 ) ;
#241 = CC_DESIGN_PERSON_AND_ORGANIZATION_ASSIGNMENT ( #129, #108, ( #170 ) ) ;
#242 = VERTEX_POINT ( 'NONE', #121 ) ;
#243 = DIRECTION ( 'NONE',  ( 1.000000000000000000, 0.0000000000000000000, 0.0000000000000000000 ) ) ;
ENDSEC;
END-ISO-10303-21;
