ISO-10303-21;
HEADER;
FILE_DESCRIPTION (( 'STEP AP203' ),
    '1' );
FILE_NAME ('321737.step',
    '2021-12-02T12:57:08',
    ( '' ),
    ( '' ),
    'SwSTEP 2.0',
    'SolidWorks 2019',
    '' );
FILE_SCHEMA (( 'CONFIG_CONTROL_DESIGN' ));
ENDSEC;

DATA;
#1 = APPROVAL_PERSON_ORGANIZATION ( #30, #39, #145 ) ;
#2 = FACE_OUTER_BOUND ( 'NONE', #114, .T. ) ;
#3 = DIRECTION ( 'NONE',  ( -3.491481338843133355E-15, 1.224646799147353207E-16, -1.000000000000000000 ) ) ;
#4 = FACE_OUTER_BOUND ( 'NONE', #228, .T. ) ;
#5 = CC_DESIGN_DATE_AND_TIME_ASSIGNMENT ( #196, #144, ( #182 ) ) ;
#6 = CLOSED_SHELL ( 'NONE', ( #94, #178, #233, #221, #81 ) ) ;
#7 = CARTESIAN_POINT ( 'NONE',  ( 4.189777606611760026E-14, -1.469576158976823947E-15, 12.00000000000000000 ) ) ;
#8 = DIRECTION ( 'NONE',  ( 0.0000000000000000000, 1.000000000000000000, 0.0000000000000000000 ) ) ;
#9 = ORIENTED_EDGE ( 'NONE', *, *, #203, .F. ) ;
#10 = FACE_OUTER_BOUND ( 'NONE', #92, .T. ) ;
#11 = PERSON_AND_ORGANIZATION ( #160, #197 ) ;
#12 = CARTESIAN_POINT ( 'NONE',  ( -1.710569414459005214E-46, 2.155000000000033111, 0.0000000000000000000 ) ) ;
#13 = APPROVAL_DATE_TIME ( #171, #39 ) ;
#14 = VERTEX_POINT ( 'NONE', #54 ) ;
#15 = COORDINATED_UNIVERSAL_TIME_OFFSET ( 1, 0, .AHEAD. ) ;
#16 = ADVANCED_FACE ( 'NONE', ( #2, #83 ), #66, .T. ) ;
#17 = PLANE ( 'NONE',  #219 ) ;
#18 = CIRCLE ( 'NONE', #87, 2.555000000000034799 ) ;
#19 = APPROVAL_ROLE ( '' ) ;
#20 = PERSON_AND_ORGANIZATION ( #160, #197 ) ;
#21 = CARTESIAN_POINT ( 'NONE',  ( 1.396592535537250581E-15, -4.898587196589402598E-17, 0.3999999999999991895 ) ) ;
#22 = PLANE ( 'NONE',  #28 ) ;
#23 = AXIS2_PLACEMENT_3D ( 'NONE', #123, #107, #179 ) ;
#24 = ORIENTED_EDGE ( 'NONE', *, *, #208, .T. ) ;
#25 = DIRECTION ( 'NONE',  ( 3.491481338843133355E-15, -1.224646799147353207E-16, 1.000000000000000000 ) ) ;
#26 = CARTESIAN_POINT ( 'NONE',  ( 2.779219145719134403E-13, 1.999999999999991340, 79.60000000000000853 ) ) ;
#27 = DIRECTION ( 'NONE',  ( 4.275831445896958607E-31, 1.000000000000000000, 1.224646799147353207E-16 ) ) ;
#28 = AXIS2_PLACEMENT_3D ( 'NONE', #227, #192, #191 ) ;
#29 = CONICAL_SURFACE ( 'NONE', #243, 1.600000000000000977, 0.7853981633974512766 ) ;
#30 = PERSON_AND_ORGANIZATION ( #160, #197 ) ;
#31 = ORIENTED_EDGE ( 'NONE', *, *, #203, .T. ) ;
#32 = PERSON_AND_ORGANIZATION_ROLE ( 'creator' ) ;
#33 = CC_DESIGN_PERSON_AND_ORGANIZATION_ASSIGNMENT ( #11, #129, ( #116 ) ) ;
#34 = DATE_AND_TIME ( #111, #88 ) ;
#35 = AXIS2_PLACEMENT_3D ( 'NONE', #42, #162, #150 ) ;
#36 = AXIS2_PLACEMENT_3D ( 'NONE', #137, #48, #44 ) ;
#37 = PERSON_AND_ORGANIZATION_ROLE ( 'design_owner' ) ;
#38 = CALENDAR_DATE ( 2021, 2, 12 ) ;
#39 = APPROVAL ( #240, 'UNSPECIFIED' ) ;
#40 = CONICAL_SURFACE ( 'NONE', #106, 2.555000000000034799, 0.5235987755983003700 ) ;
#41 = EDGE_LOOP ( 'NONE', ( #220 ) ) ;
#42 = CARTESIAN_POINT ( 'NONE',  ( 2.779219145719134403E-13, -9.748188521212932624E-15, 79.60000000000000853 ) ) ;
#43 = DIRECTION ( 'NONE',  ( -3.491481338843133355E-15, 1.224646799147353207E-16, -1.000000000000000000 ) ) ;
#44 = DIRECTION ( 'NONE',  ( 4.275831445896958607E-31, 1.000000000000000000, 1.224646799147353207E-16 ) ) ;
#45 = VERTEX_POINT ( 'NONE', #194 ) ;
#46 = APPROVAL ( #73, 'UNSPECIFIED' ) ;
#47 = AXIS2_PLACEMENT_3D ( 'NONE', #90, #64, #124 ) ;
#48 = DIRECTION ( 'NONE',  ( -3.491481338843133355E-15, 1.224646799147353207E-16, -1.000000000000000000 ) ) ;
#49 = DIRECTION ( 'NONE',  ( 3.491481338843133355E-15, -1.224646799147353207E-16, 1.000000000000000000 ) ) ;
#50 = VERTEX_POINT ( 'NONE', #108 ) ;
#51 = EDGE_CURVE ( 'NONE', #159, #159, #226, .T. ) ;
#52 = AXIS2_PLACEMENT_3D ( 'NONE', #95, #218, #236 ) ;
#53 = COORDINATED_UNIVERSAL_TIME_OFFSET ( 1, 0, .AHEAD. ) ;
#54 = CARTESIAN_POINT ( 'NONE',  ( 4.189777606611760026E-14, 2.555000000000033467, 12.00000000000000000 ) ) ;
#55 = CLOSED_SHELL ( 'NONE', ( #70, #115, #60, #16 ) ) ;
#56 = PRODUCT_DEFINITION_FORMATION_WITH_SPECIFIED_SOURCE ( 'ANY', '', #186, .NOT_KNOWN. ) ;
#57 = EDGE_LOOP ( 'NONE', ( #138 ) ) ;
#58 = MANIFOLD_SOLID_BREP ( 'Corps-Déplacer/Copier1[2]', #55 ) ;
#59 = ORIENTED_EDGE ( 'NONE', *, *, #237, .T. ) ;
#60 = ADVANCED_FACE ( 'NONE', ( #61 ), #17, .T. ) ;
#61 = FACE_OUTER_BOUND ( 'NONE', #99, .T. ) ;
#62 = DIRECTION ( 'NONE',  ( 0.0000000000000000000, 1.000000000000000000, 0.0000000000000000000 ) ) ;
#63 = FACE_BOUND ( 'NONE', #174, .T. ) ;
#64 = DIRECTION ( 'NONE',  ( -3.491481338843133355E-15, 1.224646799147353207E-16, -1.000000000000000000 ) ) ;
#65 = DIRECTION ( 'NONE',  ( -3.491481338843133355E-15, 1.224646799147353207E-16, -1.000000000000000000 ) ) ;
#66 = CONICAL_SURFACE ( 'NONE', #109, 2.155000000000033111, 0.7853981633974508325 ) ;
#67 = MANIFOLD_SOLID_BREP ( 'Corps-Déplacer/Copier1[1]', #6 ) ;
#68 = CARTESIAN_POINT ( 'NONE',  ( 4.189777606611760026E-14, -1.469576158976823947E-15, 12.00000000000000000 ) ) ;
#69 = ORIENTED_EDGE ( 'NONE', *, *, #237, .F. ) ;
#70 = ADVANCED_FACE ( 'NONE', ( #4, #225 ), #209, .T. ) ;
#71 = CARTESIAN_POINT ( 'NONE',  ( 4.525409587138582570E-14, 1.999999999999990452, 12.96128819820079769 ) ) ;
#72 = AXIS2_PLACEMENT_3D ( 'NONE', #163, #25, #86 ) ;
#73 = APPROVAL_STATUS ( 'not_yet_approved' ) ;
#74 = CC_DESIGN_PERSON_AND_ORGANIZATION_ASSIGNMENT ( #100, #242, ( #56 ) ) ;
#75 = MECHANICAL_CONTEXT ( 'NONE', #85, 'mechanical' ) ;
#76 = PERSON_AND_ORGANIZATION ( #160, #197 ) ;
#77 = COORDINATED_UNIVERSAL_TIME_OFFSET ( 1, 0, .AHEAD. ) ;
#78 = ORIENTED_EDGE ( 'NONE', *, *, #51, .T. ) ;
#79 = ORIENTED_EDGE ( 'NONE', *, *, #208, .F. ) ;
#80 = DIRECTION ( 'NONE',  ( -4.275831445896959482E-31, -1.000000000000000000, -1.224646799147353454E-16 ) ) ;
#81 = ADVANCED_FACE ( 'NONE', ( #119 ), #190, .F. ) ;
#82 = UNCERTAINTY_MEASURE_WITH_UNIT (LENGTH_MEASURE( 1.000000000000000082E-05 ), #98, 'distance_accuracy_value', 'NONE');
#83 = FACE_BOUND ( 'NONE', #142, .T. ) ;
#84 = CARTESIAN_POINT ( 'NONE',  ( 2.793185071074506684E-13, 1.199807826129472128E-32, 80.00000000000000000 ) ) ;
#85 = APPLICATION_CONTEXT ( 'configuration controlled 3d designs of mechanical parts and assemblies' ) ;
#86 = DIRECTION ( 'NONE',  ( -4.275831445896958607E-31, -1.000000000000000000, -1.224646799147353207E-16 ) ) ;
#87 = AXIS2_PLACEMENT_3D ( 'NONE', #155, #43, #62 ) ;
#88 = LOCAL_TIME ( 13, 57, 8.000000000000000000, #15 ) ;
#89 = CYLINDRICAL_SURFACE ( 'NONE', #36, 1.999999999999996669 ) ;
#90 = CARTESIAN_POINT ( 'NONE',  ( 2.793185071074506684E-13, -9.797174393178826052E-15, 80.00000000000000000 ) ) ;
#91 = FACE_OUTER_BOUND ( 'NONE', #170, .T. ) ;
#92 = EDGE_LOOP ( 'NONE', ( #103 ) ) ;
#93 = PERSON_AND_ORGANIZATION_ROLE ( 'design_supplier' ) ;
#94 = ADVANCED_FACE ( 'NONE', ( #121 ), #230, .F. ) ;
#95 = CARTESIAN_POINT ( 'NONE',  ( 0.0000000000000000000, 0.0000000000000000000, 0.0000000000000000000 ) ) ;
#96 = COORDINATED_UNIVERSAL_TIME_OFFSET ( 1, 0, .AHEAD. ) ;
#97 = AXIS2_PLACEMENT_3D ( 'NONE', #104, #175, #105 ) ;
#98 =( LENGTH_UNIT ( ) NAMED_UNIT ( * ) SI_UNIT ( .MILLI., .METRE. ) );
#99 = EDGE_LOOP ( 'NONE', ( #24 ) ) ;
#100 = PERSON_AND_ORGANIZATION ( #160, #197 ) ;
#101 = APPLICATION_CONTEXT ( 'configuration controlled 3d designs of mechanical parts and assemblies' ) ;
#102 = CC_DESIGN_SECURITY_CLASSIFICATION ( #116, ( #56 ) ) ;
#103 = ORIENTED_EDGE ( 'NONE', *, *, #132, .F. ) ;
#104 = CARTESIAN_POINT ( 'NONE',  ( -9.214416765908088738E-31, 3.231982331636353559E-32, -2.639113852162587033E-16 ) ) ;
#105 = DIRECTION ( 'NONE',  ( 4.275831445896958607E-31, 1.000000000000000000, 1.224646799147353454E-16 ) ) ;
#106 = AXIS2_PLACEMENT_3D ( 'NONE', #68, #65, #8 ) ;
#107 = DIRECTION ( 'NONE',  ( -3.491481338843133355E-15, 1.224646799147353207E-16, -1.000000000000000000 ) ) ;
#108 = CARTESIAN_POINT ( 'NONE',  ( 4.189777606611760026E-14, 2.555000000000033467, 12.00000000000000000 ) ) ;
#109 = AXIS2_PLACEMENT_3D ( 'NONE', #241, #49, #80 ) ;
#110 = LOCAL_TIME ( 13, 57, 8.000000000000000000, #77 ) ;
#111 = CALENDAR_DATE ( 2021, 2, 12 ) ;
#112 = APPLICATION_PROTOCOL_DEFINITION ( 'international standard', 'config_control_design', 1994, #85 ) ;
#113 = DATE_AND_TIME ( #38, #110 ) ;
#114 = EDGE_LOOP ( 'NONE', ( #183 ) ) ;
#115 = ADVANCED_FACE ( 'NONE', ( #206 ), #22, .T. ) ;
#116 = SECURITY_CLASSIFICATION ( '', '', #149 ) ;
#117 = CC_DESIGN_PERSON_AND_ORGANIZATION_ASSIGNMENT ( #198, #32, ( #182 ) ) ;
#118 = SHAPE_DEFINITION_REPRESENTATION ( #210, #151 ) ;
#119 = FACE_OUTER_BOUND ( 'NONE', #234, .T. ) ;
#120 = CC_DESIGN_PERSON_AND_ORGANIZATION_ASSIGNMENT ( #76, #93, ( #56 ) ) ;
#121 = FACE_OUTER_BOUND ( 'NONE', #57, .T. ) ;
#122 = DIRECTION ( 'NONE',  ( -3.491481338843133355E-15, 1.224646799147353207E-16, -1.000000000000000000 ) ) ;
#123 = CARTESIAN_POINT ( 'NONE',  ( 4.525409587138582570E-14, -1.587300010475297151E-15, 12.96128819820079769 ) ) ;
#124 = DIRECTION ( 'NONE',  ( 0.0000000000000000000, 1.000000000000000000, 0.0000000000000000000 ) ) ;
#125 = ORIENTED_EDGE ( 'NONE', *, *, #51, .F. ) ;
#126 = APPROVAL_PERSON_ORGANIZATION ( #239, #46, #184 ) ;
#127 = CALENDAR_DATE ( 2021, 2, 12 ) ;
#128 = APPROVAL_PERSON_ORGANIZATION ( #20, #188, #19 ) ;
#129 = PERSON_AND_ORGANIZATION_ROLE ( 'classification_officer' ) ;
#130 = DATE_TIME_ROLE ( 'classification_date' ) ;
#131 = CIRCLE ( 'NONE', #23, 1.999999999999992228 ) ;
#132 = EDGE_CURVE ( 'NONE', #50, #50, #18, .T. ) ;
#133 = EDGE_LOOP ( 'NONE', ( #78 ) ) ;
#134 = AXIS2_PLACEMENT_3D ( 'NONE', #193, #161, #143 ) ;
#135 =( GEOMETRIC_REPRESENTATION_CONTEXT ( 3 ) GLOBAL_UNCERTAINTY_ASSIGNED_CONTEXT ( ( #82 ) ) GLOBAL_UNIT_ASSIGNED_CONTEXT ( ( #98, #181, #215 ) ) REPRESENTATION_CONTEXT ( 'NONE', 'WORKASPACE' ) );
#136 = DIRECTION ( 'NONE',  ( -3.491481338843133355E-15, 1.224646799147353207E-16, -1.000000000000000000 ) ) ;
#137 = CARTESIAN_POINT ( 'NONE',  ( 0.0000000000000000000, 0.0000000000000000000, 0.0000000000000000000 ) ) ;
#138 = ORIENTED_EDGE ( 'NONE', *, *, #132, .T. ) ;
#139 = DIRECTION ( 'NONE',  ( -3.491481338843133355E-15, 1.224646799147353207E-16, -1.000000000000000000 ) ) ;
#140 = DIRECTION ( 'NONE',  ( 4.522731767641196381E-31, 1.000000000000000000, 1.273035818965349795E-16 ) ) ;
#141 = CC_DESIGN_APPROVAL ( #188, ( #116 ) ) ;
#142 = EDGE_LOOP ( 'NONE', ( #79 ) ) ;
#143 = DIRECTION ( 'NONE',  ( 4.275831445896958607E-31, 1.000000000000000000, 1.224646799147352961E-16 ) ) ;
#144 = DATE_TIME_ROLE ( 'creation_date' ) ;
#145 = APPROVAL_ROLE ( '' ) ;
#146 = CIRCLE ( 'NONE', #238, 2.555000000000034799 ) ;
#147 = PRODUCT_RELATED_PRODUCT_CATEGORY ( 'detail', '', ( #186 ) ) ;
#148 = APPROVAL_DATE_TIME ( #34, #46 ) ;
#149 = SECURITY_CLASSIFICATION_LEVEL ( 'unclassified' ) ;
#150 = DIRECTION ( 'NONE',  ( 0.0000000000000000000, 1.000000000000000000, 0.0000000000000000000 ) ) ;
#151 = ADVANCED_BREP_SHAPE_REPRESENTATION ( '321737', ( #67, #58, #52 ), #135 ) ;
#152 = EDGE_LOOP ( 'NONE', ( #69 ) ) ;
#153 = EDGE_LOOP ( 'NONE', ( #125 ) ) ;
#154 = ORIENTED_EDGE ( 'NONE', *, *, #156, .F. ) ;
#155 = CARTESIAN_POINT ( 'NONE',  ( 4.189777606611760026E-14, -1.469576158976823947E-15, 12.00000000000000000 ) ) ;
#156 = EDGE_CURVE ( 'NONE', #45, #45, #214, .T. ) ;
#157 = LOCAL_TIME ( 13, 57, 8.000000000000000000, #96 ) ;
#158 = DIRECTION ( 'NONE',  ( 4.275831445896958607E-31, 1.000000000000000000, 1.224646799147353207E-16 ) ) ;
#159 = VERTEX_POINT ( 'NONE', #26 ) ;
#160 = PERSON ( 'UNSPECIFIED', 'UNSPECIFIED', 'UNSPECIFIED', ('UNSPECIFIED'), ('UNSPECIFIED'), ('UNSPECIFIED') ) ;
#161 = DIRECTION ( 'NONE',  ( -3.491481338843133355E-15, 1.224646799147353207E-16, -1.000000000000000000 ) ) ;
#162 = DIRECTION ( 'NONE',  ( -3.491481338843133355E-15, 1.224646799147353207E-16, -1.000000000000000000 ) ) ;
#163 = CARTESIAN_POINT ( 'NONE',  ( 4.189777606611760026E-14, 1.915943122350547206E-32, 12.00000000000000000 ) ) ;
#164 = LOCAL_TIME ( 13, 57, 8.000000000000000000, #165 ) ;
#165 = COORDINATED_UNIVERSAL_TIME_OFFSET ( 1, 0, .AHEAD. ) ;
#166 = APPLICATION_PROTOCOL_DEFINITION ( 'international standard', 'config_control_design', 1994, #101 ) ;
#167 = CALENDAR_DATE ( 2021, 2, 12 ) ;
#168 = CIRCLE ( 'NONE', #97, 2.155000000000033111 ) ;
#169 = PERSON_AND_ORGANIZATION ( #160, #197 ) ;
#170 = EDGE_LOOP ( 'NONE', ( #9 ) ) ;
#171 = DATE_AND_TIME ( #127, #189 ) ;
#172 = CC_DESIGN_APPROVAL ( #39, ( #182 ) ) ;
#173 = DIRECTION ( 'NONE',  ( 0.0000000000000000000, 1.000000000000000000, 0.0000000000000000000 ) ) ;
#174 = EDGE_LOOP ( 'NONE', ( #223 ) ) ;
#175 = DIRECTION ( 'NONE',  ( -3.491481338843133355E-15, 1.224646799147353207E-16, -1.000000000000000000 ) ) ;
#176 = CC_DESIGN_APPROVAL ( #46, ( #56 ) ) ;
#177 = FACE_OUTER_BOUND ( 'NONE', #133, .T. ) ;
#178 = ADVANCED_FACE ( 'NONE', ( #232, #10 ), #40, .T. ) ;
#179 = DIRECTION ( 'NONE',  ( 0.0000000000000000000, 1.000000000000000000, 0.0000000000000000000 ) ) ;
#180 = DIRECTION ( 'NONE',  ( -3.491481338843133355E-15, 1.224646799147353207E-16, -1.000000000000000000 ) ) ;
#181 =( NAMED_UNIT ( * ) PLANE_ANGLE_UNIT ( ) SI_UNIT ( $, .RADIAN. ) );
#182 = PRODUCT_DEFINITION ( 'UNKNOWN', '', #56, #185 ) ;
#183 = ORIENTED_EDGE ( 'NONE', *, *, #195, .T. ) ;
#184 = APPROVAL_ROLE ( '' ) ;
#185 = DESIGN_CONTEXT ( 'detailed design', #101, 'design' ) ;
#186 = PRODUCT ( '321737', '321737', '', ( #75 ) ) ;
#187 = AXIS2_PLACEMENT_3D ( 'NONE', #84, #180, #27 ) ;
#188 = APPROVAL ( #222, 'UNSPECIFIED' ) ;
#189 = LOCAL_TIME ( 13, 57, 8.000000000000000000, #53 ) ;
#190 = PLANE ( 'NONE',  #187 ) ;
#191 = DIRECTION ( 'NONE',  ( -4.275831445896958607E-31, -1.000000000000000000, -1.224646799147353207E-16 ) ) ;
#192 = DIRECTION ( 'NONE',  ( 3.491481338843133355E-15, -1.224646799147353207E-16, 1.000000000000000000 ) ) ;
#193 = CARTESIAN_POINT ( 'NONE',  ( 0.0000000000000000000, 0.0000000000000000000, 0.0000000000000000000 ) ) ;
#194 = CARTESIAN_POINT ( 'NONE',  ( 2.793185071074506684E-13, 1.599999999999991207, 80.00000000000000000 ) ) ;
#195 = EDGE_CURVE ( 'NONE', #229, #229, #146, .T. ) ;
#196 = DATE_AND_TIME ( #167, #157 ) ;
#197 = ORGANIZATION ( 'UNSPECIFIED', 'UNSPECIFIED', '' ) ;
#198 = PERSON_AND_ORGANIZATION ( #160, #197 ) ;
#199 = CC_DESIGN_PERSON_AND_ORGANIZATION_ASSIGNMENT ( #169, #37, ( #186 ) ) ;
#200 = AXIS2_PLACEMENT_3D ( 'NONE', #7, #3, #173 ) ;
#201 = VERTEX_POINT ( 'NONE', #12 ) ;
#202 = APPROVAL_DATE_TIME ( #113, #188 ) ;
#203 = EDGE_CURVE ( 'NONE', #217, #217, #131, .T. ) ;
#204 = EDGE_LOOP ( 'NONE', ( #31 ) ) ;
#205 = CARTESIAN_POINT ( 'NONE',  ( -4.607208382954044369E-31, 1.615991165818176779E-32, -1.319556926081293517E-16 ) ) ;
#206 = FACE_OUTER_BOUND ( 'NONE', #152, .T. ) ;
#207 = DIRECTION ( 'NONE',  ( 0.0000000000000000000, 1.000000000000000000, 0.0000000000000000000 ) ) ;
#208 = EDGE_CURVE ( 'NONE', #201, #201, #168, .T. ) ;
#209 = CYLINDRICAL_SURFACE ( 'NONE', #134, 2.555000000000034799 ) ;
#210 = PRODUCT_DEFINITION_SHAPE ( 'NONE', 'NONE',  #182 ) ;
#211 = FACE_OUTER_BOUND ( 'NONE', #153, .T. ) ;
#212 = CARTESIAN_POINT ( 'NONE',  ( 2.793185071074506684E-13, -9.797174393178826052E-15, 80.00000000000000000 ) ) ;
#213 = DATE_AND_TIME ( #235, #164 ) ;
#214 = CIRCLE ( 'NONE', #47, 1.600000000000000977 ) ;
#215 =( NAMED_UNIT ( * ) SI_UNIT ( $, .STERADIAN. ) SOLID_ANGLE_UNIT ( ) );
#216 = CARTESIAN_POINT ( 'NONE',  ( 1.396592535537251764E-15, 2.555000000000034799, 0.3999999999999995226 ) ) ;
#217 = VERTEX_POINT ( 'NONE', #71 ) ;
#218 = DIRECTION ( 'NONE',  ( 0.0000000000000000000, 0.0000000000000000000, 1.000000000000000000 ) ) ;
#219 = AXIS2_PLACEMENT_3D ( 'NONE', #205, #122, #158 ) ;
#220 = ORIENTED_EDGE ( 'NONE', *, *, #195, .F. ) ;
#221 = ADVANCED_FACE ( 'NONE', ( #211, #63 ), #29, .T. ) ;
#222 = APPROVAL_STATUS ( 'not_yet_approved' ) ;
#223 = ORIENTED_EDGE ( 'NONE', *, *, #156, .T. ) ;
#224 = CC_DESIGN_DATE_AND_TIME_ASSIGNMENT ( #213, #130, ( #116 ) ) ;
#225 = FACE_OUTER_BOUND ( 'NONE', #41, .T. ) ;
#226 = CIRCLE ( 'NONE', #35, 2.000000000000000888 ) ;
#227 = CARTESIAN_POINT ( 'NONE',  ( 4.189777606611760026E-14, 1.915943122350547206E-32, 12.00000000000000000 ) ) ;
#228 = EDGE_LOOP ( 'NONE', ( #59 ) ) ;
#229 = VERTEX_POINT ( 'NONE', #216 ) ;
#230 = PLANE ( 'NONE',  #72 ) ;
#231 = CIRCLE ( 'NONE', #200, 2.555000000000034799 ) ;
#232 = FACE_BOUND ( 'NONE', #204, .T. ) ;
#233 = ADVANCED_FACE ( 'NONE', ( #91, #177 ), #89, .T. ) ;
#234 = EDGE_LOOP ( 'NONE', ( #154 ) ) ;
#235 = CALENDAR_DATE ( 2021, 2, 12 ) ;
#236 = DIRECTION ( 'NONE',  ( 1.000000000000000000, 0.0000000000000000000, 0.0000000000000000000 ) ) ;
#237 = EDGE_CURVE ( 'NONE', #14, #14, #231, .T. ) ;
#238 = AXIS2_PLACEMENT_3D ( 'NONE', #21, #136, #140 ) ;
#239 = PERSON_AND_ORGANIZATION ( #160, #197 ) ;
#240 = APPROVAL_STATUS ( 'not_yet_approved' ) ;
#241 = CARTESIAN_POINT ( 'NONE',  ( -9.214416765908088738E-31, 3.231982331636353559E-32, -2.639113852162587033E-16 ) ) ;
#242 = PERSON_AND_ORGANIZATION_ROLE ( 'creator' ) ;
#243 = AXIS2_PLACEMENT_3D ( 'NONE', #212, #139, #207 ) ;
ENDSEC;
END-ISO-10303-21;
