ISO-10303-21;
HEADER;
FILE_DESCRIPTION (( 'STEP AP203' ),
    '1' );
FILE_NAME ('321736.step',
    '2021-12-02T12:57:07',
    ( '' ),
    ( '' ),
    'SwSTEP 2.0',
    'SolidWorks 2019',
    '' );
FILE_SCHEMA (( 'CONFIG_CONTROL_DESIGN' ));
ENDSEC;

DATA;
#1 = DESIGN_CONTEXT ( 'detailed design', #214, 'design' ) ;
#2 = CARTESIAN_POINT ( 'NONE',  ( 2.793185071074506684E-13, -9.797174393178826052E-15, 80.00000000000000000 ) ) ;
#3 = EDGE_LOOP ( 'NONE', ( #29 ) ) ;
#4 = DIRECTION ( 'NONE',  ( 4.275831445896959482E-31, 1.000000000000000000, 1.224646799147353207E-16 ) ) ;
#5 = AXIS2_PLACEMENT_3D ( 'NONE', #206, #66, #4 ) ;
#6 = CARTESIAN_POINT ( 'NONE',  ( 4.189777606611760026E-14, -1.469576158976823947E-15, 12.00000000000000000 ) ) ;
#7 = COORDINATED_UNIVERSAL_TIME_OFFSET ( 1, 0, .AHEAD. ) ;
#8 = PERSON_AND_ORGANIZATION ( #32, #89 ) ;
#9 = APPROVAL ( #154, 'UNSPECIFIED' ) ;
#10 = APPROVAL_DATE_TIME ( #105, #241 ) ;
#11 = APPROVAL_PERSON_ORGANIZATION ( #177, #241, #162 ) ;
#12 = FACE_OUTER_BOUND ( 'NONE', #232, .T. ) ;
#13 = SHAPE_DEFINITION_REPRESENTATION ( #224, #135 ) ;
#14 = PLANE ( 'NONE',  #228 ) ;
#15 = DIRECTION ( 'NONE',  ( 4.275831445896958607E-31, 1.000000000000000000, 1.224646799147353207E-16 ) ) ;
#16 = CIRCLE ( 'NONE', #5, 2.150000000000033218 ) ;
#17 = CARTESIAN_POINT ( 'NONE',  ( 4.189777606611760026E-14, 2.550000000000033573, 12.00000000000000000 ) ) ;
#18 =( NAMED_UNIT ( * ) PLANE_ANGLE_UNIT ( ) SI_UNIT ( $, .RADIAN. ) );
#19 =( NAMED_UNIT ( * ) SI_UNIT ( $, .STERADIAN. ) SOLID_ANGLE_UNIT ( ) );
#20 = CIRCLE ( 'NONE', #38, 2.000000000000000888 ) ;
#21 = ADVANCED_FACE ( 'NONE', ( #103, #175 ), #23, .T. ) ;
#22 = CALENDAR_DATE ( 2021, 2, 12 ) ;
#23 = CONICAL_SURFACE ( 'NONE', #204, 2.150000000000033218, 0.7853981633974504994 ) ;
#24 = ORIENTED_EDGE ( 'NONE', *, *, #83, .T. ) ;
#25 = CC_DESIGN_PERSON_AND_ORGANIZATION_ASSIGNMENT ( #79, #161, ( #43 ) ) ;
#26 = PLANE ( 'NONE',  #225 ) ;
#27 = ORIENTED_EDGE ( 'NONE', *, *, #75, .F. ) ;
#28 = SECURITY_CLASSIFICATION ( '', '', #31 ) ;
#29 = ORIENTED_EDGE ( 'NONE', *, *, #75, .T. ) ;
#30 = CARTESIAN_POINT ( 'NONE',  ( 0.0000000000000000000, 2.150000000000033218, 0.0000000000000000000 ) ) ;
#31 = SECURITY_CLASSIFICATION_LEVEL ( 'unclassified' ) ;
#32 = PERSON ( 'UNSPECIFIED', 'UNSPECIFIED', 'UNSPECIFIED', ('UNSPECIFIED'), ('UNSPECIFIED'), ('UNSPECIFIED') ) ;
#33 = CONICAL_SURFACE ( 'NONE', #158, 2.550000000000034905, 0.5235987755983000369 ) ;
#34 = DIRECTION ( 'NONE',  ( -3.491481338843133355E-15, 1.224646799147353207E-16, -1.000000000000000000 ) ) ;
#35 = CARTESIAN_POINT ( 'NONE',  ( -9.193037608678604024E-31, 3.224483532723043669E-32, -2.632990618166850157E-16 ) ) ;
#36 = DIRECTION ( 'NONE',  ( -4.275831445896958607E-31, -1.000000000000000000, -1.224646799147353207E-16 ) ) ;
#37 = FACE_OUTER_BOUND ( 'NONE', #160, .T. ) ;
#38 = AXIS2_PLACEMENT_3D ( 'NONE', #212, #62, #139 ) ;
#39 = APPLICATION_PROTOCOL_DEFINITION ( 'international standard', 'config_control_design', 1994, #187 ) ;
#40 = CARTESIAN_POINT ( 'NONE',  ( 0.0000000000000000000, 0.0000000000000000000, 0.0000000000000000000 ) ) ;
#41 = APPROVAL ( #119, 'UNSPECIFIED' ) ;
#42 = LOCAL_TIME ( 13, 57, 7.000000000000000000, #156 ) ;
#43 = PRODUCT ( '321736', '321736', '', ( #100 ) ) ;
#44 = EDGE_LOOP ( 'NONE', ( #145 ) ) ;
#45 = EDGE_LOOP ( 'NONE', ( #24 ) ) ;
#46 = AXIS2_PLACEMENT_3D ( 'NONE', #6, #157, #106 ) ;
#47 = PERSON_AND_ORGANIZATION ( #32, #89 ) ;
#48 = FACE_OUTER_BOUND ( 'NONE', #87, .T. ) ;
#49 = ORIENTED_EDGE ( 'NONE', *, *, #120, .T. ) ;
#50 = PERSON_AND_ORGANIZATION ( #32, #89 ) ;
#51 = DIRECTION ( 'NONE',  ( 0.0000000000000000000, 1.000000000000000000, 0.0000000000000000000 ) ) ;
#52 = AXIS2_PLACEMENT_3D ( 'NONE', #234, #237, #198 ) ;
#53 = FACE_OUTER_BOUND ( 'NONE', #178, .T. ) ;
#54 = VERTEX_POINT ( 'NONE', #30 ) ;
#55 = PERSON_AND_ORGANIZATION ( #32, #89 ) ;
#56 = CARTESIAN_POINT ( 'NONE',  ( 2.793185071074506684E-13, 1.599999999999991207, 80.00000000000000000 ) ) ;
#57 = AXIS2_PLACEMENT_3D ( 'NONE', #74, #130, #112 ) ;
#58 = CARTESIAN_POINT ( 'NONE',  ( 2.779219145719134403E-13, 1.999999999999991340, 79.60000000000000853 ) ) ;
#59 = EDGE_CURVE ( 'NONE', #78, #78, #115, .T. ) ;
#60 = CC_DESIGN_DATE_AND_TIME_ASSIGNMENT ( #146, #144, ( #28 ) ) ;
#61 = EDGE_LOOP ( 'NONE', ( #27 ) ) ;
#62 = DIRECTION ( 'NONE',  ( -3.491481338843133355E-15, 1.224646799147353207E-16, -1.000000000000000000 ) ) ;
#63 = ORIENTED_EDGE ( 'NONE', *, *, #59, .T. ) ;
#64 = MANIFOLD_SOLID_BREP ( 'Corps-Déplacer/Copier1[2]', #114 ) ;
#65 = APPLICATION_PROTOCOL_DEFINITION ( 'international standard', 'config_control_design', 1994, #214 ) ;
#66 = DIRECTION ( 'NONE',  ( -3.491481338843133355E-15, 1.224646799147353207E-16, -1.000000000000000000 ) ) ;
#67 = ORIENTED_EDGE ( 'NONE', *, *, #120, .F. ) ;
#68 = EDGE_CURVE ( 'NONE', #199, #199, #174, .T. ) ;
#69 = PERSON_AND_ORGANIZATION ( #32, #89 ) ;
#70 = MANIFOLD_SOLID_BREP ( 'Corps-Déplacer/Copier1[1]', #208 ) ;
#71 = CALENDAR_DATE ( 2021, 2, 12 ) ;
#72 = CC_DESIGN_SECURITY_CLASSIFICATION ( #28, ( #188 ) ) ;
#73 = DIRECTION ( 'NONE',  ( -4.275831445896959482E-31, -1.000000000000000000, -1.224646799147353207E-16 ) ) ;
#74 = CARTESIAN_POINT ( 'NONE',  ( 4.189777606611760026E-14, 1.912193722893892808E-32, 12.00000000000000000 ) ) ;
#75 = EDGE_CURVE ( 'NONE', #220, #220, #20, .T. ) ;
#76 = COORDINATED_UNIVERSAL_TIME_OFFSET ( 1, 0, .AHEAD. ) ;
#77 = PLANE ( 'NONE',  #57 ) ;
#78 = VERTEX_POINT ( 'NONE', #151 ) ;
#79 = PERSON_AND_ORGANIZATION ( #32, #89 ) ;
#80 = ADVANCED_FACE ( 'NONE', ( #159, #48 ), #33, .T. ) ;
#81 = CARTESIAN_POINT ( 'NONE',  ( 0.0000000000000000000, 0.0000000000000000000, 0.0000000000000000000 ) ) ;
#82 = CC_DESIGN_APPROVAL ( #9, ( #188 ) ) ;
#83 = EDGE_CURVE ( 'NONE', #54, #54, #16, .T. ) ;
#84 = AXIS2_PLACEMENT_3D ( 'NONE', #153, #182, #15 ) ;
#85 = UNCERTAINTY_MEASURE_WITH_UNIT (LENGTH_MEASURE( 1.000000000000000082E-05 ), #221, 'distance_accuracy_value', 'NONE');
#86 = APPROVAL_ROLE ( '' ) ;
#87 = EDGE_LOOP ( 'NONE', ( #122 ) ) ;
#88 = DATE_AND_TIME ( #71, #42 ) ;
#89 = ORGANIZATION ( 'UNSPECIFIED', 'UNSPECIFIED', '' ) ;
#90 = ADVANCED_FACE ( 'NONE', ( #207 ), #26, .T. ) ;
#91 = CALENDAR_DATE ( 2021, 2, 12 ) ;
#92 = PERSON_AND_ORGANIZATION_ROLE ( 'creator' ) ;
#93 = CC_DESIGN_APPROVAL ( #41, ( #227 ) ) ;
#94 = CYLINDRICAL_SURFACE ( 'NONE', #184, 2.550000000000034905 ) ;
#95 = DIRECTION ( 'NONE',  ( 3.491481338843133355E-15, -1.224646799147353207E-16, 1.000000000000000000 ) ) ;
#96 = DIRECTION ( 'NONE',  ( 0.0000000000000000000, 1.000000000000000000, 0.0000000000000000000 ) ) ;
#97 = VERTEX_POINT ( 'NONE', #17 ) ;
#98 = ADVANCED_FACE ( 'NONE', ( #132 ), #14, .F. ) ;
#99 = COORDINATED_UNIVERSAL_TIME_OFFSET ( 1, 0, .AHEAD. ) ;
#100 = MECHANICAL_CONTEXT ( 'NONE', #187, 'mechanical' ) ;
#101 = EDGE_LOOP ( 'NONE', ( #49 ) ) ;
#102 = CARTESIAN_POINT ( 'NONE',  ( -4.596518804339302012E-31, 1.612241766361521834E-32, -1.316495309083425079E-16 ) ) ;
#103 = FACE_OUTER_BOUND ( 'NONE', #140, .T. ) ;
#104 = EDGE_LOOP ( 'NONE', ( #126 ) ) ;
#105 = DATE_AND_TIME ( #179, #117 ) ;
#106 = DIRECTION ( 'NONE',  ( 0.0000000000000000000, 1.000000000000000000, 0.0000000000000000000 ) ) ;
#107 = PERSON_AND_ORGANIZATION_ROLE ( 'classification_officer' ) ;
#108 = VERTEX_POINT ( 'NONE', #113 ) ;
#109 = CC_DESIGN_PERSON_AND_ORGANIZATION_ASSIGNMENT ( #50, #107, ( #28 ) ) ;
#110 = FACE_BOUND ( 'NONE', #104, .T. ) ;
#111 = CALENDAR_DATE ( 2021, 2, 12 ) ;
#112 = DIRECTION ( 'NONE',  ( -4.275831445896958607E-31, -1.000000000000000000, -1.224646799147353207E-16 ) ) ;
#113 = CARTESIAN_POINT ( 'NONE',  ( 1.396592535537252553E-15, 2.550000000000034905, 0.3999999999999997446 ) ) ;
#114 = CLOSED_SHELL ( 'NONE', ( #215, #123, #90, #21 ) ) ;
#115 = CIRCLE ( 'NONE', #46, 2.550000000000034905 ) ;
#116 = FACE_OUTER_BOUND ( 'NONE', #44, .T. ) ;
#117 = LOCAL_TIME ( 13, 57, 7.000000000000000000, #196 ) ;
#118 = LOCAL_TIME ( 13, 57, 7.000000000000000000, #99 ) ;
#119 = APPROVAL_STATUS ( 'not_yet_approved' ) ;
#120 = EDGE_CURVE ( 'NONE', #134, #134, #217, .T. ) ;
#121 = AXIS2_PLACEMENT_3D ( 'NONE', #2, #229, #165 ) ;
#122 = ORIENTED_EDGE ( 'NONE', *, *, #59, .F. ) ;
#123 = ADVANCED_FACE ( 'NONE', ( #170 ), #77, .T. ) ;
#124 = EDGE_LOOP ( 'NONE', ( #63 ) ) ;
#125 = CONICAL_SURFACE ( 'NONE', #243, 1.600000000000000977, 0.7853981633974512766 ) ;
#126 = ORIENTED_EDGE ( 'NONE', *, *, #68, .T. ) ;
#127 = CARTESIAN_POINT ( 'NONE',  ( 4.189777606611760026E-14, -1.469576158976823947E-15, 12.00000000000000000 ) ) ;
#128 = EDGE_CURVE ( 'NONE', #108, #108, #201, .T. ) ;
#129 = CYLINDRICAL_SURFACE ( 'NONE', #52, 1.999999999999996669 ) ;
#130 = DIRECTION ( 'NONE',  ( 3.491481338843133355E-15, -1.224646799147353207E-16, 1.000000000000000000 ) ) ;
#131 = CARTESIAN_POINT ( 'NONE',  ( 4.522385875602305066E-14, 1.999999999999990452, 12.95262794416295371 ) ) ;
#132 = FACE_OUTER_BOUND ( 'NONE', #124, .T. ) ;
#133 = AXIS2_PLACEMENT_3D ( 'NONE', #180, #152, #148 ) ;
#134 = VERTEX_POINT ( 'NONE', #131 ) ;
#135 = ADVANCED_BREP_SHAPE_REPRESENTATION ( '321736', ( #70, #64, #150 ), #142 ) ;
#136 = LOCAL_TIME ( 13, 57, 7.000000000000000000, #7 ) ;
#137 = DIRECTION ( 'NONE',  ( 0.0000000000000000000, 1.000000000000000000, 0.0000000000000000000 ) ) ;
#138 = ORIENTED_EDGE ( 'NONE', *, *, #83, .F. ) ;
#139 = DIRECTION ( 'NONE',  ( 0.0000000000000000000, 1.000000000000000000, 0.0000000000000000000 ) ) ;
#140 = EDGE_LOOP ( 'NONE', ( #231 ) ) ;
#141 = PERSON_AND_ORGANIZATION_ROLE ( 'design_supplier' ) ;
#142 =( GEOMETRIC_REPRESENTATION_CONTEXT ( 3 ) GLOBAL_UNCERTAINTY_ASSIGNED_CONTEXT ( ( #85 ) ) GLOBAL_UNIT_ASSIGNED_CONTEXT ( ( #221, #18, #19 ) ) REPRESENTATION_CONTEXT ( 'NONE', 'WORKASPACE' ) );
#143 = ORIENTED_EDGE ( 'NONE', *, *, #164, .F. ) ;
#144 = DATE_TIME_ROLE ( 'classification_date' ) ;
#145 = ORIENTED_EDGE ( 'NONE', *, *, #128, .F. ) ;
#146 = DATE_AND_TIME ( #111, #171 ) ;
#147 = DIRECTION ( 'NONE',  ( 1.000000000000000000, 0.0000000000000000000, 0.0000000000000000000 ) ) ;
#148 = DIRECTION ( 'NONE',  ( 4.531599869146375222E-31, 1.000000000000000000, 1.275531967629987743E-16 ) ) ;
#149 = CARTESIAN_POINT ( 'NONE',  ( 4.522385875602305066E-14, -1.586239435236572304E-15, 12.95262794416295371 ) ) ;
#150 = AXIS2_PLACEMENT_3D ( 'NONE', #40, #233, #147 ) ;
#151 = CARTESIAN_POINT ( 'NONE',  ( 4.189777606611760026E-14, 2.550000000000033573, 12.00000000000000000 ) ) ;
#152 = DIRECTION ( 'NONE',  ( -3.491481338843133355E-15, 1.224646799147353207E-16, -1.000000000000000000 ) ) ;
#153 = CARTESIAN_POINT ( 'NONE',  ( 2.793185071074506684E-13, 1.199807826129472128E-32, 80.00000000000000000 ) ) ;
#154 = APPROVAL_STATUS ( 'not_yet_approved' ) ;
#155 = CC_DESIGN_PERSON_AND_ORGANIZATION_ASSIGNMENT ( #69, #141, ( #188 ) ) ;
#156 = COORDINATED_UNIVERSAL_TIME_OFFSET ( 1, 0, .AHEAD. ) ;
#157 = DIRECTION ( 'NONE',  ( -3.491481338843133355E-15, 1.224646799147353207E-16, -1.000000000000000000 ) ) ;
#158 = AXIS2_PLACEMENT_3D ( 'NONE', #127, #191, #137 ) ;
#159 = FACE_BOUND ( 'NONE', #101, .T. ) ;
#160 = EDGE_LOOP ( 'NONE', ( #190 ) ) ;
#161 = PERSON_AND_ORGANIZATION_ROLE ( 'design_owner' ) ;
#162 = APPROVAL_ROLE ( '' ) ;
#163 = DATE_AND_TIME ( #91, #136 ) ;
#164 = EDGE_CURVE ( 'NONE', #97, #97, #186, .T. ) ;
#165 = DIRECTION ( 'NONE',  ( 0.0000000000000000000, 1.000000000000000000, 0.0000000000000000000 ) ) ;
#166 = AXIS2_PLACEMENT_3D ( 'NONE', #149, #240, #96 ) ;
#167 = FACE_OUTER_BOUND ( 'NONE', #61, .T. ) ;
#168 = DIRECTION ( 'NONE',  ( 4.275831445896959482E-31, 1.000000000000000000, 1.224646799147353207E-16 ) ) ;
#169 = PERSON_AND_ORGANIZATION_ROLE ( 'creator' ) ;
#170 = FACE_OUTER_BOUND ( 'NONE', #211, .T. ) ;
#171 = LOCAL_TIME ( 13, 57, 7.000000000000000000, #76 ) ;
#172 = CARTESIAN_POINT ( 'NONE',  ( 4.189777606611760026E-14, 1.912193722893892808E-32, 12.00000000000000000 ) ) ;
#173 = APPROVAL_PERSON_ORGANIZATION ( #47, #9, #202 ) ;
#174 = CIRCLE ( 'NONE', #121, 1.600000000000000977 ) ;
#175 = FACE_BOUND ( 'NONE', #194, .T. ) ;
#176 = ORIENTED_EDGE ( 'NONE', *, *, #68, .F. ) ;
#177 = PERSON_AND_ORGANIZATION ( #32, #89 ) ;
#178 = EDGE_LOOP ( 'NONE', ( #176 ) ) ;
#179 = CALENDAR_DATE ( 2021, 2, 12 ) ;
#180 = CARTESIAN_POINT ( 'NONE',  ( 1.396592535537251370E-15, -4.898587196589405680E-17, 0.3999999999999994116 ) ) ;
#181 = CARTESIAN_POINT ( 'NONE',  ( 2.793185071074506684E-13, -9.797174393178826052E-15, 80.00000000000000000 ) ) ;
#182 = DIRECTION ( 'NONE',  ( -3.491481338843133355E-15, 1.224646799147353207E-16, -1.000000000000000000 ) ) ;
#183 = FACE_OUTER_BOUND ( 'NONE', #3, .T. ) ;
#184 = AXIS2_PLACEMENT_3D ( 'NONE', #81, #195, #168 ) ;
#185 = CC_DESIGN_PERSON_AND_ORGANIZATION_ASSIGNMENT ( #55, #169, ( #227 ) ) ;
#186 = CIRCLE ( 'NONE', #219, 2.550000000000034905 ) ;
#187 = APPLICATION_CONTEXT ( 'configuration controlled 3d designs of mechanical parts and assemblies' ) ;
#188 = PRODUCT_DEFINITION_FORMATION_WITH_SPECIFIED_SOURCE ( 'ANY', '', #43, .NOT_KNOWN. ) ;
#189 = CC_DESIGN_DATE_AND_TIME_ASSIGNMENT ( #88, #223, ( #227 ) ) ;
#190 = ORIENTED_EDGE ( 'NONE', *, *, #164, .T. ) ;
#191 = DIRECTION ( 'NONE',  ( -3.491481338843133355E-15, 1.224646799147353207E-16, -1.000000000000000000 ) ) ;
#192 = APPROVAL_DATE_TIME ( #210, #9 ) ;
#193 = CC_DESIGN_APPROVAL ( #241, ( #28 ) ) ;
#194 = EDGE_LOOP ( 'NONE', ( #138 ) ) ;
#195 = DIRECTION ( 'NONE',  ( -3.491481338843133355E-15, 1.224646799147353207E-16, -1.000000000000000000 ) ) ;
#196 = COORDINATED_UNIVERSAL_TIME_OFFSET ( 1, 0, .AHEAD. ) ;
#197 = PLANE ( 'NONE',  #84 ) ;
#198 = DIRECTION ( 'NONE',  ( 4.275831445896958607E-31, 1.000000000000000000, 1.224646799147353207E-16 ) ) ;
#199 = VERTEX_POINT ( 'NONE', #56 ) ;
#200 = ADVANCED_FACE ( 'NONE', ( #167, #110 ), #125, .T. ) ;
#201 = CIRCLE ( 'NONE', #133, 2.550000000000034905 ) ;
#202 = APPROVAL_ROLE ( '' ) ;
#203 = ADVANCED_FACE ( 'NONE', ( #12, #183 ), #129, .T. ) ;
#204 = AXIS2_PLACEMENT_3D ( 'NONE', #35, #209, #73 ) ;
#205 = CC_DESIGN_PERSON_AND_ORGANIZATION_ASSIGNMENT ( #8, #92, ( #188 ) ) ;
#206 = CARTESIAN_POINT ( 'NONE',  ( -9.193037608678604024E-31, 3.224483532723043669E-32, -2.632990618166850157E-16 ) ) ;
#207 = FACE_OUTER_BOUND ( 'NONE', #45, .T. ) ;
#208 = CLOSED_SHELL ( 'NONE', ( #98, #80, #203, #200, #238 ) ) ;
#209 = DIRECTION ( 'NONE',  ( 3.491481338843133355E-15, -1.224646799147353207E-16, 1.000000000000000000 ) ) ;
#210 = DATE_AND_TIME ( #22, #118 ) ;
#211 = EDGE_LOOP ( 'NONE', ( #143 ) ) ;
#212 = CARTESIAN_POINT ( 'NONE',  ( 2.779219145719134403E-13, -9.748188521212932624E-15, 79.60000000000000853 ) ) ;
#213 = DIRECTION ( 'NONE',  ( 0.0000000000000000000, 1.000000000000000000, 0.0000000000000000000 ) ) ;
#214 = APPLICATION_CONTEXT ( 'configuration controlled 3d designs of mechanical parts and assemblies' ) ;
#215 = ADVANCED_FACE ( 'NONE', ( #37, #116 ), #94, .T. ) ;
#216 = APPROVAL_STATUS ( 'not_yet_approved' ) ;
#217 = CIRCLE ( 'NONE', #166, 1.999999999999992228 ) ;
#218 = DIRECTION ( 'NONE',  ( -3.491481338843133355E-15, 1.224646799147353207E-16, -1.000000000000000000 ) ) ;
#219 = AXIS2_PLACEMENT_3D ( 'NONE', #222, #239, #213 ) ;
#220 = VERTEX_POINT ( 'NONE', #58 ) ;
#221 =( LENGTH_UNIT ( ) NAMED_UNIT ( * ) SI_UNIT ( .MILLI., .METRE. ) );
#222 = CARTESIAN_POINT ( 'NONE',  ( 4.189777606611760026E-14, -1.469576158976823947E-15, 12.00000000000000000 ) ) ;
#223 = DATE_TIME_ROLE ( 'creation_date' ) ;
#224 = PRODUCT_DEFINITION_SHAPE ( 'NONE', 'NONE',  #227 ) ;
#225 = AXIS2_PLACEMENT_3D ( 'NONE', #102, #34, #235 ) ;
#226 = PERSON_AND_ORGANIZATION ( #32, #89 ) ;
#227 = PRODUCT_DEFINITION ( 'UNKNOWN', '', #188, #1 ) ;
#228 = AXIS2_PLACEMENT_3D ( 'NONE', #172, #95, #36 ) ;
#229 = DIRECTION ( 'NONE',  ( -3.491481338843133355E-15, 1.224646799147353207E-16, -1.000000000000000000 ) ) ;
#230 = PRODUCT_RELATED_PRODUCT_CATEGORY ( 'detail', '', ( #43 ) ) ;
#231 = ORIENTED_EDGE ( 'NONE', *, *, #128, .T. ) ;
#232 = EDGE_LOOP ( 'NONE', ( #67 ) ) ;
#233 = DIRECTION ( 'NONE',  ( 0.0000000000000000000, 0.0000000000000000000, 1.000000000000000000 ) ) ;
#234 = CARTESIAN_POINT ( 'NONE',  ( 0.0000000000000000000, 0.0000000000000000000, 0.0000000000000000000 ) ) ;
#235 = DIRECTION ( 'NONE',  ( 4.275831445896958607E-31, 1.000000000000000000, 1.224646799147353207E-16 ) ) ;
#236 = APPROVAL_PERSON_ORGANIZATION ( #226, #41, #86 ) ;
#237 = DIRECTION ( 'NONE',  ( -3.491481338843133355E-15, 1.224646799147353207E-16, -1.000000000000000000 ) ) ;
#238 = ADVANCED_FACE ( 'NONE', ( #53 ), #197, .F. ) ;
#239 = DIRECTION ( 'NONE',  ( -3.491481338843133355E-15, 1.224646799147353207E-16, -1.000000000000000000 ) ) ;
#240 = DIRECTION ( 'NONE',  ( -3.491481338843133355E-15, 1.224646799147353207E-16, -1.000000000000000000 ) ) ;
#241 = APPROVAL ( #216, 'UNSPECIFIED' ) ;
#242 = APPROVAL_DATE_TIME ( #163, #41 ) ;
#243 = AXIS2_PLACEMENT_3D ( 'NONE', #181, #218, #51 ) ;
ENDSEC;
END-ISO-10303-21;
