ISO-10303-21;
HEADER;
FILE_DESCRIPTION (( 'STEP AP203' ),
    '1' );
FILE_NAME ('321735.step',
    '2021-12-02T12:57:06',
    ( '' ),
    ( '' ),
    'SwSTEP 2.0',
    'SolidWorks 2019',
    '' );
FILE_SCHEMA (( 'CONFIG_CONTROL_DESIGN' ));
ENDSEC;

DATA;
#1 = CYLINDRICAL_SURFACE ( 'NONE', #213, 1.999999999999996669 ) ;
#2 = DIRECTION ( 'NONE',  ( -3.491481338843133355E-15, 1.224646799147353207E-16, -1.000000000000000000 ) ) ;
#3 = APPROVAL_PERSON_ORGANIZATION ( #107, #88, #167 ) ;
#4 = ADVANCED_BREP_SHAPE_REPRESENTATION ( '321735', ( #229, #225, #104 ), #67 ) ;
#5 = CC_DESIGN_PERSON_AND_ORGANIZATION_ASSIGNMENT ( #237, #66, ( #224 ) ) ;
#6 = VERTEX_POINT ( 'NONE', #175 ) ;
#7 = FACE_OUTER_BOUND ( 'NONE', #126, .T. ) ;
#8 = CARTESIAN_POINT ( 'NONE',  ( 4.189777606611760026E-14, 1.908444323437238137E-32, 12.00000000000000000 ) ) ;
#9 = AXIS2_PLACEMENT_3D ( 'NONE', #219, #50, #129 ) ;
#10 = DIRECTION ( 'NONE',  ( 0.0000000000000000000, 0.0000000000000000000, 1.000000000000000000 ) ) ;
#11 = PERSON_AND_ORGANIZATION ( #25, #23 ) ;
#12 = CARTESIAN_POINT ( 'NONE',  ( 2.779219145719134403E-13, 1.999999999999991340, 79.60000000000000853 ) ) ;
#13 = CC_DESIGN_DATE_AND_TIME_ASSIGNMENT ( #30, #186, ( #224 ) ) ;
#14 = PERSON_AND_ORGANIZATION_ROLE ( 'design_supplier' ) ;
#15 = DATE_AND_TIME ( #200, #81 ) ;
#16 = CARTESIAN_POINT ( 'NONE',  ( 4.189777606611760026E-14, -1.469576158976823947E-15, 12.00000000000000000 ) ) ;
#17 = DIRECTION ( 'NONE',  ( 0.0000000000000000000, 1.000000000000000000, 0.0000000000000000000 ) ) ;
#18 = AXIS2_PLACEMENT_3D ( 'NONE', #54, #26, #212 ) ;
#19 = EDGE_CURVE ( 'NONE', #6, #6, #75, .T. ) ;
#20 = DIRECTION ( 'NONE',  ( -3.491481338843133355E-15, 1.224646799147353207E-16, -1.000000000000000000 ) ) ;
#21 = PRODUCT_DEFINITION ( 'UNKNOWN', '', #232, #198 ) ;
#22 = DIRECTION ( 'NONE',  ( -3.491481338843133355E-15, 1.224646799147353207E-16, -1.000000000000000000 ) ) ;
#23 = ORGANIZATION ( 'UNSPECIFIED', 'UNSPECIFIED', '' ) ;
#24 = DIRECTION ( 'NONE',  ( 4.275831445896958607E-31, 1.000000000000000000, 1.224646799147353207E-16 ) ) ;
#25 = PERSON ( 'UNSPECIFIED', 'UNSPECIFIED', 'UNSPECIFIED', ('UNSPECIFIED'), ('UNSPECIFIED'), ('UNSPECIFIED') ) ;
#26 = DIRECTION ( 'NONE',  ( -3.491481338843133355E-15, 1.224646799147353207E-16, -1.000000000000000000 ) ) ;
#27 = AXIS2_PLACEMENT_3D ( 'NONE', #159, #36, #24 ) ;
#28 = APPLICATION_CONTEXT ( 'configuration controlled 3d designs of mechanical parts and assemblies' ) ;
#29 = PERSON_AND_ORGANIZATION ( #25, #23 ) ;
#30 = DATE_AND_TIME ( #47, #109 ) ;
#31 = AXIS2_PLACEMENT_3D ( 'NONE', #8, #57, #139 ) ;
#32 = EDGE_CURVE ( 'NONE', #78, #78, #203, .T. ) ;
#33 = EDGE_LOOP ( 'NONE', ( #132 ) ) ;
#34 = AXIS2_PLACEMENT_3D ( 'NONE', #41, #76, #193 ) ;
#35 = APPROVAL_PERSON_ORGANIZATION ( #199, #240, #216 ) ;
#36 = DIRECTION ( 'NONE',  ( -3.491481338843133355E-15, 1.224646799147353207E-16, -1.000000000000000000 ) ) ;
#37 = ADVANCED_FACE ( 'NONE', ( #242, #153 ), #143, .T. ) ;
#38 = DIRECTION ( 'NONE',  ( 3.491481338843133355E-15, -1.224646799147353207E-16, 1.000000000000000000 ) ) ;
#39 = DIRECTION ( 'NONE',  ( 0.0000000000000000000, 1.000000000000000000, 0.0000000000000000000 ) ) ;
#40 = FACE_OUTER_BOUND ( 'NONE', #152, .T. ) ;
#41 = CARTESIAN_POINT ( 'NONE',  ( 2.793185071074506684E-13, 1.199807826129472128E-32, 80.00000000000000000 ) ) ;
#42 = PRODUCT ( '321735', '321735', '', ( #142 ) ) ;
#43 = CARTESIAN_POINT ( 'NONE',  ( 0.0000000000000000000, 2.145000000000033769, 0.0000000000000000000 ) ) ;
#44 = APPROVAL_ROLE ( '' ) ;
#45 = CC_DESIGN_DATE_AND_TIME_ASSIGNMENT ( #182, #64, ( #21 ) ) ;
#46 = DATE_AND_TIME ( #145, #105 ) ;
#47 = CALENDAR_DATE ( 2021, 2, 12 ) ;
#48 = APPROVAL_STATUS ( 'not_yet_approved' ) ;
#49 = EDGE_LOOP ( 'NONE', ( #69 ) ) ;
#50 = DIRECTION ( 'NONE',  ( -3.491481338843133355E-15, 1.224646799147353207E-16, -1.000000000000000000 ) ) ;
#51 = CC_DESIGN_PERSON_AND_ORGANIZATION_ASSIGNMENT ( #11, #236, ( #21 ) ) ;
#52 = ORIENTED_EDGE ( 'NONE', *, *, #108, .T. ) ;
#53 = EDGE_LOOP ( 'NONE', ( #201 ) ) ;
#54 = CARTESIAN_POINT ( 'NONE',  ( 4.189777606611760026E-14, -1.469576158976823947E-15, 12.00000000000000000 ) ) ;
#55 = FACE_OUTER_BOUND ( 'NONE', #204, .T. ) ;
#56 = DIRECTION ( 'NONE',  ( 4.275831445896958607E-31, 1.000000000000000000, 1.224646799147353207E-16 ) ) ;
#57 = DIRECTION ( 'NONE',  ( 3.491481338843133355E-15, -1.224646799147353207E-16, 1.000000000000000000 ) ) ;
#58 = APPROVAL_PERSON_ORGANIZATION ( #122, #90, #44 ) ;
#59 = ADVANCED_FACE ( 'NONE', ( #118 ), #60, .T. ) ;
#60 = PLANE ( 'NONE',  #27 ) ;
#61 =( NAMED_UNIT ( * ) SI_UNIT ( $, .STERADIAN. ) SOLID_ANGLE_UNIT ( ) );
#62 = EDGE_CURVE ( 'NONE', #209, #209, #183, .T. ) ;
#63 = CIRCLE ( 'NONE', #210, 2.145000000000033769 ) ;
#64 = DATE_TIME_ROLE ( 'creation_date' ) ;
#65 = COORDINATED_UNIVERSAL_TIME_OFFSET ( 1, 0, .AHEAD. ) ;
#66 = PERSON_AND_ORGANIZATION_ROLE ( 'classification_officer' ) ;
#67 =( GEOMETRIC_REPRESENTATION_CONTEXT ( 3 ) GLOBAL_UNCERTAINTY_ASSIGNED_CONTEXT ( ( #191 ) ) GLOBAL_UNIT_ASSIGNED_CONTEXT ( ( #103, #141, #61 ) ) REPRESENTATION_CONTEXT ( 'NONE', 'WORKASPACE' ) );
#68 = SHAPE_DEFINITION_REPRESENTATION ( #146, #4 ) ;
#69 = ORIENTED_EDGE ( 'NONE', *, *, #188, .F. ) ;
#70 = EDGE_CURVE ( 'NONE', #87, #87, #190, .T. ) ;
#71 = CONICAL_SURFACE ( 'NONE', #171, 2.545000000000035012, 0.5235987755982998149 ) ;
#72 = ORIENTED_EDGE ( 'NONE', *, *, #70, .T. ) ;
#73 = EDGE_LOOP ( 'NONE', ( #241 ) ) ;
#74 = FACE_OUTER_BOUND ( 'NONE', #111, .T. ) ;
#75 = CIRCLE ( 'NONE', #9, 1.600000000000000977 ) ;
#76 = DIRECTION ( 'NONE',  ( -3.491481338843133355E-15, 1.224646799147353207E-16, -1.000000000000000000 ) ) ;
#77 = CLOSED_SHELL ( 'NONE', ( #180, #154, #59, #221 ) ) ;
#78 = VERTEX_POINT ( 'NONE', #228 ) ;
#79 = FACE_OUTER_BOUND ( 'NONE', #110, .T. ) ;
#80 = DIRECTION ( 'NONE',  ( 0.0000000000000000000, 1.000000000000000000, 0.0000000000000000000 ) ) ;
#81 = LOCAL_TIME ( 13, 57, 6.000000000000000000, #238 ) ;
#82 = VERTEX_POINT ( 'NONE', #144 ) ;
#83 = ADVANCED_FACE ( 'NONE', ( #195 ), #140, .F. ) ;
#84 = DIRECTION ( 'NONE',  ( 1.000000000000000000, 0.0000000000000000000, 0.0000000000000000000 ) ) ;
#85 = COORDINATED_UNIVERSAL_TIME_OFFSET ( 1, 0, .AHEAD. ) ;
#86 = PERSON_AND_ORGANIZATION_ROLE ( 'design_owner' ) ;
#87 = VERTEX_POINT ( 'NONE', #234 ) ;
#88 = APPROVAL ( #48, 'UNSPECIFIED' ) ;
#89 = ORIENTED_EDGE ( 'NONE', *, *, #123, .T. ) ;
#90 = APPROVAL ( #214, 'UNSPECIFIED' ) ;
#91 = ORIENTED_EDGE ( 'NONE', *, *, #188, .T. ) ;
#92 = EDGE_LOOP ( 'NONE', ( #72 ) ) ;
#93 = AXIS2_PLACEMENT_3D ( 'NONE', #161, #99, #192 ) ;
#94 = CARTESIAN_POINT ( 'NONE',  ( 2.793185071074506684E-13, -9.797174393178826052E-15, 80.00000000000000000 ) ) ;
#95 = FACE_OUTER_BOUND ( 'NONE', #33, .T. ) ;
#96 = FACE_OUTER_BOUND ( 'NONE', #127, .T. ) ;
#97 = CARTESIAN_POINT ( 'NONE',  ( 2.779219145719134403E-13, -9.748188521212932624E-15, 79.60000000000000853 ) ) ;
#98 = DIRECTION ( 'NONE',  ( -4.275831445896958607E-31, -1.000000000000000000, -1.224646799147353207E-16 ) ) ;
#99 = DIRECTION ( 'NONE',  ( -3.491481338843133355E-15, 1.224646799147353207E-16, -1.000000000000000000 ) ) ;
#100 = APPLICATION_PROTOCOL_DEFINITION ( 'international standard', 'config_control_design', 1994, #208 ) ;
#101 = CC_DESIGN_APPROVAL ( #90, ( #21 ) ) ;
#102 = DATE_AND_TIME ( #197, #125 ) ;
#103 =( LENGTH_UNIT ( ) NAMED_UNIT ( * ) SI_UNIT ( .MILLI., .METRE. ) );
#104 = AXIS2_PLACEMENT_3D ( 'NONE', #163, #10, #84 ) ;
#105 = LOCAL_TIME ( 13, 57, 6.000000000000000000, #65 ) ;
#106 = APPROVAL_STATUS ( 'not_yet_approved' ) ;
#107 = PERSON_AND_ORGANIZATION ( #25, #23 ) ;
#108 = EDGE_CURVE ( 'NONE', #82, #82, #187, .T. ) ;
#109 = LOCAL_TIME ( 13, 57, 6.000000000000000000, #147 ) ;
#110 = EDGE_LOOP ( 'NONE', ( #222 ) ) ;
#111 = EDGE_LOOP ( 'NONE', ( #150 ) ) ;
#112 = CC_DESIGN_PERSON_AND_ORGANIZATION_ASSIGNMENT ( #29, #218, ( #232 ) ) ;
#113 = DIRECTION ( 'NONE',  ( 3.491481338843133355E-15, -1.224646799147353207E-16, 1.000000000000000000 ) ) ;
#114 = DIRECTION ( 'NONE',  ( -4.275831445896957731E-31, -1.000000000000000000, -1.224646799147353207E-16 ) ) ;
#115 = ADVANCED_FACE ( 'NONE', ( #194, #95 ), #71, .T. ) ;
#116 = AXIS2_PLACEMENT_3D ( 'NONE', #207, #38, #114 ) ;
#117 = CARTESIAN_POINT ( 'NONE',  ( 4.189777606611760026E-14, 2.545000000000033680, 12.00000000000000000 ) ) ;
#118 = FACE_OUTER_BOUND ( 'NONE', #169, .T. ) ;
#119 = DIRECTION ( 'NONE',  ( 4.275831445896958607E-31, 1.000000000000000000, 1.224646799147353207E-16 ) ) ;
#120 = APPLICATION_PROTOCOL_DEFINITION ( 'international standard', 'config_control_design', 1994, #28 ) ;
#121 = VERTEX_POINT ( 'NONE', #12 ) ;
#122 = PERSON_AND_ORGANIZATION ( #25, #23 ) ;
#123 = EDGE_CURVE ( 'NONE', #121, #121, #160, .T. ) ;
#124 = APPROVAL_DATE_TIME ( #46, #240 ) ;
#125 = LOCAL_TIME ( 13, 57, 6.000000000000000000, #215 ) ;
#126 = EDGE_LOOP ( 'NONE', ( #202 ) ) ;
#127 = EDGE_LOOP ( 'NONE', ( #220 ) ) ;
#128 = CC_DESIGN_APPROVAL ( #240, ( #232 ) ) ;
#129 = DIRECTION ( 'NONE',  ( 0.0000000000000000000, 1.000000000000000000, 0.0000000000000000000 ) ) ;
#130 = ORIENTED_EDGE ( 'NONE', *, *, #62, .T. ) ;
#131 = ADVANCED_FACE ( 'NONE', ( #7 ), #196, .F. ) ;
#132 = ORIENTED_EDGE ( 'NONE', *, *, #32, .F. ) ;
#133 = AXIS2_PLACEMENT_3D ( 'NONE', #94, #155, #80 ) ;
#134 = DIRECTION ( 'NONE',  ( 0.0000000000000000000, 1.000000000000000000, 0.0000000000000000000 ) ) ;
#135 = FACE_BOUND ( 'NONE', #49, .T. ) ;
#136 = ADVANCED_FACE ( 'NONE', ( #79, #40 ), #1, .T. ) ;
#137 = DIRECTION ( 'NONE',  ( 4.275831445896957731E-31, 1.000000000000000000, 1.224646799147353207E-16 ) ) ;
#138 = AXIS2_PLACEMENT_3D ( 'NONE', #16, #170, #17 ) ;
#139 = DIRECTION ( 'NONE',  ( -4.275831445896958607E-31, -1.000000000000000000, -1.224646799147353207E-16 ) ) ;
#140 = PLANE ( 'NONE',  #168 ) ;
#141 =( NAMED_UNIT ( * ) PLANE_ANGLE_UNIT ( ) SI_UNIT ( $, .RADIAN. ) );
#142 = MECHANICAL_CONTEXT ( 'NONE', #208, 'mechanical' ) ;
#143 = CONICAL_SURFACE ( 'NONE', #133, 1.600000000000000977, 0.7853981633974512766 ) ;
#144 = CARTESIAN_POINT ( 'NONE',  ( 1.396592535537253342E-15, 2.545000000000035012, 0.3999999999999999667 ) ) ;
#145 = CALENDAR_DATE ( 2021, 2, 12 ) ;
#146 = PRODUCT_DEFINITION_SHAPE ( 'NONE', 'NONE',  #21 ) ;
#147 = COORDINATED_UNIVERSAL_TIME_OFFSET ( 1, 0, .AHEAD. ) ;
#148 = CC_DESIGN_APPROVAL ( #88, ( #224 ) ) ;
#149 = APPROVAL_DATE_TIME ( #15, #88 ) ;
#150 = ORIENTED_EDGE ( 'NONE', *, *, #62, .F. ) ;
#151 = EDGE_LOOP ( 'NONE', ( #243 ) ) ;
#152 = EDGE_LOOP ( 'NONE', ( #89 ) ) ;
#153 = FACE_BOUND ( 'NONE', #73, .T. ) ;
#154 = ADVANCED_FACE ( 'NONE', ( #74 ), #226, .T. ) ;
#155 = DIRECTION ( 'NONE',  ( -3.491481338843133355E-15, 1.224646799147353207E-16, -1.000000000000000000 ) ) ;
#156 = CARTESIAN_POINT ( 'NONE',  ( 1.396592535537252159E-15, -4.898587196589408145E-17, 0.3999999999999996336 ) ) ;
#157 = DIRECTION ( 'NONE',  ( -3.491481338843133355E-15, 1.224646799147353207E-16, -1.000000000000000000 ) ) ;
#158 = CARTESIAN_POINT ( 'NONE',  ( -9.171658451449119310E-31, 3.216984733809735421E-32, -2.626867384171113775E-16 ) ) ;
#159 = CARTESIAN_POINT ( 'NONE',  ( -4.585829225724559655E-31, 1.608492366904867710E-32, -1.313433692085556887E-16 ) ) ;
#160 = CIRCLE ( 'NONE', #223, 2.000000000000000888 ) ;
#161 = CARTESIAN_POINT ( 'NONE',  ( 4.519362164066027562E-14, -1.585178859997847457E-15, 12.94396769012510973 ) ) ;
#162 = PERSON_AND_ORGANIZATION ( #25, #23 ) ;
#163 = CARTESIAN_POINT ( 'NONE',  ( 0.0000000000000000000, 0.0000000000000000000, 0.0000000000000000000 ) ) ;
#164 = CALENDAR_DATE ( 2021, 2, 12 ) ;
#165 = PRODUCT_RELATED_PRODUCT_CATEGORY ( 'detail', '', ( #42 ) ) ;
#166 = SECURITY_CLASSIFICATION_LEVEL ( 'unclassified' ) ;
#167 = APPROVAL_ROLE ( '' ) ;
#168 = AXIS2_PLACEMENT_3D ( 'NONE', #230, #113, #98 ) ;
#169 = EDGE_LOOP ( 'NONE', ( #91 ) ) ;
#170 = DIRECTION ( 'NONE',  ( -3.491481338843133355E-15, 1.224646799147353207E-16, -1.000000000000000000 ) ) ;
#171 = AXIS2_PLACEMENT_3D ( 'NONE', #172, #2, #134 ) ;
#172 = CARTESIAN_POINT ( 'NONE',  ( 4.189777606611760026E-14, -1.469576158976823947E-15, 12.00000000000000000 ) ) ;
#173 = CYLINDRICAL_SURFACE ( 'NONE', #174, 2.545000000000035012 ) ;
#174 = AXIS2_PLACEMENT_3D ( 'NONE', #233, #157, #119 ) ;
#175 = CARTESIAN_POINT ( 'NONE',  ( 2.793185071074506684E-13, 1.599999999999991207, 80.00000000000000000 ) ) ;
#176 = DIRECTION ( 'NONE',  ( -3.491481338843133355E-15, 1.224646799147353207E-16, -1.000000000000000000 ) ) ;
#177 = CARTESIAN_POINT ( 'NONE',  ( 0.0000000000000000000, 0.0000000000000000000, 0.0000000000000000000 ) ) ;
#178 = CC_DESIGN_PERSON_AND_ORGANIZATION_ASSIGNMENT ( #185, #14, ( #232 ) ) ;
#179 = VERTEX_POINT ( 'NONE', #43 ) ;
#180 = ADVANCED_FACE ( 'NONE', ( #211, #96 ), #173, .T. ) ;
#181 = APPROVAL_DATE_TIME ( #102, #90 ) ;
#182 = DATE_AND_TIME ( #164, #239 ) ;
#183 = CIRCLE ( 'NONE', #18, 2.545000000000035012 ) ;
#184 = CC_DESIGN_SECURITY_CLASSIFICATION ( #224, ( #232 ) ) ;
#185 = PERSON_AND_ORGANIZATION ( #25, #23 ) ;
#186 = DATE_TIME_ROLE ( 'classification_date' ) ;
#187 = CIRCLE ( 'NONE', #231, 2.545000000000035012 ) ;
#188 = EDGE_CURVE ( 'NONE', #179, #179, #63, .T. ) ;
#189 = EDGE_LOOP ( 'NONE', ( #130 ) ) ;
#190 = CIRCLE ( 'NONE', #93, 1.999999999999992228 ) ;
#191 = UNCERTAINTY_MEASURE_WITH_UNIT (LENGTH_MEASURE( 1.000000000000000082E-05 ), #103, 'distance_accuracy_value', 'NONE');
#192 = DIRECTION ( 'NONE',  ( 0.0000000000000000000, 1.000000000000000000, 0.0000000000000000000 ) ) ;
#193 = DIRECTION ( 'NONE',  ( 4.275831445896958607E-31, 1.000000000000000000, 1.224646799147353207E-16 ) ) ;
#194 = FACE_BOUND ( 'NONE', #92, .T. ) ;
#195 = FACE_OUTER_BOUND ( 'NONE', #151, .T. ) ;
#196 = PLANE ( 'NONE',  #34 ) ;
#197 = CALENDAR_DATE ( 2021, 2, 12 ) ;
#198 = DESIGN_CONTEXT ( 'detailed design', #28, 'design' ) ;
#199 = PERSON_AND_ORGANIZATION ( #25, #23 ) ;
#200 = CALENDAR_DATE ( 2021, 2, 12 ) ;
#201 = ORIENTED_EDGE ( 'NONE', *, *, #123, .F. ) ;
#202 = ORIENTED_EDGE ( 'NONE', *, *, #19, .F. ) ;
#203 = CIRCLE ( 'NONE', #138, 2.545000000000035012 ) ;
#204 = EDGE_LOOP ( 'NONE', ( #52 ) ) ;
#205 = CLOSED_SHELL ( 'NONE', ( #83, #115, #136, #37, #131 ) ) ;
#206 = DIRECTION ( 'NONE',  ( 4.540502815844108348E-31, 1.000000000000000000, 1.278037924344388386E-16 ) ) ;
#207 = CARTESIAN_POINT ( 'NONE',  ( -9.171658451449119310E-31, 3.216984733809735421E-32, -2.626867384171113775E-16 ) ) ;
#208 = APPLICATION_CONTEXT ( 'configuration controlled 3d designs of mechanical parts and assemblies' ) ;
#209 = VERTEX_POINT ( 'NONE', #117 ) ;
#210 = AXIS2_PLACEMENT_3D ( 'NONE', #158, #227, #137 ) ;
#211 = FACE_OUTER_BOUND ( 'NONE', #189, .T. ) ;
#212 = DIRECTION ( 'NONE',  ( 0.0000000000000000000, 1.000000000000000000, 0.0000000000000000000 ) ) ;
#213 = AXIS2_PLACEMENT_3D ( 'NONE', #177, #22, #56 ) ;
#214 = APPROVAL_STATUS ( 'not_yet_approved' ) ;
#215 = COORDINATED_UNIVERSAL_TIME_OFFSET ( 1, 0, .AHEAD. ) ;
#216 = APPROVAL_ROLE ( '' ) ;
#217 = CC_DESIGN_PERSON_AND_ORGANIZATION_ASSIGNMENT ( #162, #86, ( #42 ) ) ;
#218 = PERSON_AND_ORGANIZATION_ROLE ( 'creator' ) ;
#219 = CARTESIAN_POINT ( 'NONE',  ( 2.793185071074506684E-13, -9.797174393178826052E-15, 80.00000000000000000 ) ) ;
#220 = ORIENTED_EDGE ( 'NONE', *, *, #108, .F. ) ;
#221 = ADVANCED_FACE ( 'NONE', ( #55, #135 ), #235, .T. ) ;
#222 = ORIENTED_EDGE ( 'NONE', *, *, #70, .F. ) ;
#223 = AXIS2_PLACEMENT_3D ( 'NONE', #97, #20, #39 ) ;
#224 = SECURITY_CLASSIFICATION ( '', '', #166 ) ;
#225 = MANIFOLD_SOLID_BREP ( 'Corps-Déplacer/Copier1[2]', #77 ) ;
#226 = PLANE ( 'NONE',  #31 ) ;
#227 = DIRECTION ( 'NONE',  ( -3.491481338843133355E-15, 1.224646799147353207E-16, -1.000000000000000000 ) ) ;
#228 = CARTESIAN_POINT ( 'NONE',  ( 4.189777606611760026E-14, 2.545000000000033680, 12.00000000000000000 ) ) ;
#229 = MANIFOLD_SOLID_BREP ( 'Corps-Déplacer/Copier1[1]', #205 ) ;
#230 = CARTESIAN_POINT ( 'NONE',  ( 4.189777606611760026E-14, 1.908444323437238137E-32, 12.00000000000000000 ) ) ;
#231 = AXIS2_PLACEMENT_3D ( 'NONE', #156, #176, #206 ) ;
#232 = PRODUCT_DEFINITION_FORMATION_WITH_SPECIFIED_SOURCE ( 'ANY', '', #42, .NOT_KNOWN. ) ;
#233 = CARTESIAN_POINT ( 'NONE',  ( 0.0000000000000000000, 0.0000000000000000000, 0.0000000000000000000 ) ) ;
#234 = CARTESIAN_POINT ( 'NONE',  ( 4.519362164066027562E-14, 1.999999999999990452, 12.94396769012510973 ) ) ;
#235 = CONICAL_SURFACE ( 'NONE', #116, 2.145000000000033769, 0.7853981633974502774 ) ;
#236 = PERSON_AND_ORGANIZATION_ROLE ( 'creator' ) ;
#237 = PERSON_AND_ORGANIZATION ( #25, #23 ) ;
#238 = COORDINATED_UNIVERSAL_TIME_OFFSET ( 1, 0, .AHEAD. ) ;
#239 = LOCAL_TIME ( 13, 57, 6.000000000000000000, #85 ) ;
#240 = APPROVAL ( #106, 'UNSPECIFIED' ) ;
#241 = ORIENTED_EDGE ( 'NONE', *, *, #19, .T. ) ;
#242 = FACE_OUTER_BOUND ( 'NONE', #53, .T. ) ;
#243 = ORIENTED_EDGE ( 'NONE', *, *, #32, .T. ) ;
ENDSEC;
END-ISO-10303-21;
