ISO-10303-21;
HEADER;
FILE_DESCRIPTION (( 'STEP AP203' ),
    '1' );
FILE_NAME ('321734.step',
    '2021-12-02T12:57:05',
    ( '' ),
    ( '' ),
    'SwSTEP 2.0',
    'SolidWorks 2019',
    '' );
FILE_SCHEMA (( 'CONFIG_CONTROL_DESIGN' ));
ENDSEC;

DATA;
#1 = FACE_OUTER_BOUND ( 'NONE', #113, .T. ) ;
#2 = MANIFOLD_SOLID_BREP ( 'Corps-Déplacer/Copier1[2]', #144 ) ;
#3 = CARTESIAN_POINT ( 'NONE',  ( 1.396592535537250581E-15, -4.898587196589402598E-17, 0.3999999999999991895 ) ) ;
#4 = CALENDAR_DATE ( 2021, 2, 12 ) ;
#5 = DIRECTION ( 'NONE',  ( -3.491481338843133355E-15, 1.224646799147353207E-16, -1.000000000000000000 ) ) ;
#6 = PERSON_AND_ORGANIZATION ( #89, #221 ) ;
#7 = FACE_OUTER_BOUND ( 'NONE', #240, .T. ) ;
#8 = PLANE ( 'NONE',  #226 ) ;
#9 = PERSON_AND_ORGANIZATION ( #89, #221 ) ;
#10 = EDGE_LOOP ( 'NONE', ( #167 ) ) ;
#11 = APPROVAL_ROLE ( '' ) ;
#12 = ORIENTED_EDGE ( 'NONE', *, *, #99, .F. ) ;
#13 = LOCAL_TIME ( 13, 57, 5.000000000000000000, #42 ) ;
#14 = APPLICATION_CONTEXT ( 'configuration controlled 3d designs of mechanical parts and assemblies' ) ;
#15 = FACE_OUTER_BOUND ( 'NONE', #130, .T. ) ;
#16 = VERTEX_POINT ( 'NONE', #66 ) ;
#17 = AXIS2_PLACEMENT_3D ( 'NONE', #3, #211, #100 ) ;
#18 = AXIS2_PLACEMENT_3D ( 'NONE', #138, #210, #229 ) ;
#19 = EDGE_CURVE ( 'NONE', #148, #148, #123, .T. ) ;
#20 = DIRECTION ( 'NONE',  ( -4.275831445896958607E-31, -1.000000000000000000, -1.224646799147353207E-16 ) ) ;
#21 = VERTEX_POINT ( 'NONE', #206 ) ;
#22 = MECHANICAL_CONTEXT ( 'NONE', #14, 'mechanical' ) ;
#23 = CYLINDRICAL_SURFACE ( 'NONE', #110, 1.999999999999996669 ) ;
#24 = DATE_AND_TIME ( #111, #114 ) ;
#25 = DIRECTION ( 'NONE',  ( -3.491481338843133355E-15, 1.224646799147353207E-16, -1.000000000000000000 ) ) ;
#26 = COORDINATED_UNIVERSAL_TIME_OFFSET ( 1, 0, .AHEAD. ) ;
#27 = CARTESIAN_POINT ( 'NONE',  ( 2.793185071074506684E-13, 1.199807826129472128E-32, 80.00000000000000000 ) ) ;
#28 = ORIENTED_EDGE ( 'NONE', *, *, #19, .F. ) ;
#29 = CC_DESIGN_PERSON_AND_ORGANIZATION_ASSIGNMENT ( #143, #212, ( #48 ) ) ;
#30 = APPROVAL_DATE_TIME ( #88, #205 ) ;
#31 = AXIS2_PLACEMENT_3D ( 'NONE', #85, #168, #32 ) ;
#32 = DIRECTION ( 'NONE',  ( 0.0000000000000000000, 1.000000000000000000, 0.0000000000000000000 ) ) ;
#33 = MANIFOLD_SOLID_BREP ( 'Corps-Déplacer/Copier1[1]', #82 ) ;
#34 = AXIS2_PLACEMENT_3D ( 'NONE', #122, #146, #38 ) ;
#35 = APPROVAL ( #192, 'UNSPECIFIED' ) ;
#36 = CIRCLE ( 'NONE', #179, 1.600000000000000977 ) ;
#37 = CC_DESIGN_APPROVAL ( #205, ( #48 ) ) ;
#38 = DIRECTION ( 'NONE',  ( 0.0000000000000000000, 1.000000000000000000, 0.0000000000000000000 ) ) ;
#39 = APPROVAL_ROLE ( '' ) ;
#40 = FACE_BOUND ( 'NONE', #51, .T. ) ;
#41 = DIRECTION ( 'NONE',  ( -3.491481338843133355E-15, 1.224646799147353207E-16, -1.000000000000000000 ) ) ;
#42 = COORDINATED_UNIVERSAL_TIME_OFFSET ( 1, 0, .AHEAD. ) ;
#43 = CARTESIAN_POINT ( 'NONE',  ( 0.0000000000000000000, 0.0000000000000000000, 0.0000000000000000000 ) ) ;
#44 = DATE_AND_TIME ( #177, #188 ) ;
#45 = APPROVAL ( #147, 'UNSPECIFIED' ) ;
#46 = VERTEX_POINT ( 'NONE', #190 ) ;
#47 = SECURITY_CLASSIFICATION_LEVEL ( 'unclassified' ) ;
#48 = SECURITY_CLASSIFICATION ( '', '', #47 ) ;
#49 = EDGE_LOOP ( 'NONE', ( #112 ) ) ;
#50 = CALENDAR_DATE ( 2021, 2, 12 ) ;
#51 = EDGE_LOOP ( 'NONE', ( #70 ) ) ;
#52 = AXIS2_PLACEMENT_3D ( 'NONE', #159, #157, #58 ) ;
#53 = FACE_OUTER_BOUND ( 'NONE', #151, .T. ) ;
#54 = AXIS2_PLACEMENT_3D ( 'NONE', #173, #98, #61 ) ;
#55 = CARTESIAN_POINT ( 'NONE',  ( 4.516338452529750688E-14, 1.999999999999990452, 12.93530743608726574 ) ) ;
#56 = DIRECTION ( 'NONE',  ( -3.491481338843133355E-15, 1.224646799147353207E-16, -1.000000000000000000 ) ) ;
#57 = APPLICATION_PROTOCOL_DEFINITION ( 'international standard', 'config_control_design', 1994, #133 ) ;
#58 = DIRECTION ( 'NONE',  ( 0.0000000000000000000, 1.000000000000000000, 0.0000000000000000000 ) ) ;
#59 = PERSON_AND_ORGANIZATION_ROLE ( 'design_supplier' ) ;
#60 = AXIS2_PLACEMENT_3D ( 'NONE', #241, #204, #74 ) ;
#61 = DIRECTION ( 'NONE',  ( 0.0000000000000000000, 1.000000000000000000, 0.0000000000000000000 ) ) ;
#62 = PERSON_AND_ORGANIZATION_ROLE ( 'creator' ) ;
#63 = DESIGN_CONTEXT ( 'detailed design', #133, 'design' ) ;
#64 = ADVANCED_FACE ( 'NONE', ( #116, #187 ), #94, .T. ) ;
#65 = DIRECTION ( 'NONE',  ( 4.275831445896958607E-31, 1.000000000000000000, 1.224646799147353207E-16 ) ) ;
#66 = CARTESIAN_POINT ( 'NONE',  ( 2.779219145719134403E-13, 1.999999999999991340, 79.60000000000000853 ) ) ;
#67 = ORIENTED_EDGE ( 'NONE', *, *, #81, .F. ) ;
#68 = CC_DESIGN_PERSON_AND_ORGANIZATION_ASSIGNMENT ( #9, #59, ( #145 ) ) ;
#69 = SHAPE_DEFINITION_REPRESENTATION ( #102, #141 ) ;
#70 = ORIENTED_EDGE ( 'NONE', *, *, #183, .F. ) ;
#71 = EDGE_LOOP ( 'NONE', ( #109 ) ) ;
#72 = CIRCLE ( 'NONE', #135, 2.540000000000035119 ) ;
#73 = ADVANCED_FACE ( 'NONE', ( #53, #15 ), #153, .T. ) ;
#74 = DIRECTION ( 'NONE',  ( 0.0000000000000000000, 1.000000000000000000, 0.0000000000000000000 ) ) ;
#75 = PLANE ( 'NONE',  #161 ) ;
#76 = CIRCLE ( 'NONE', #34, 2.000000000000000888 ) ;
#77 = CARTESIAN_POINT ( 'NONE',  ( 4.189777606611760026E-14, -1.469576158976823947E-15, 12.00000000000000000 ) ) ;
#78 = APPROVAL_DATE_TIME ( #174, #35 ) ;
#79 = CARTESIAN_POINT ( 'NONE',  ( -9.150279294219636347E-31, 3.209485934896426078E-32, -2.620744150175377392E-16 ) ) ;
#80 = FACE_OUTER_BOUND ( 'NONE', #184, .T. ) ;
#81 = EDGE_CURVE ( 'NONE', #46, #46, #201, .T. ) ;
#82 = CLOSED_SHELL ( 'NONE', ( #169, #131, #95, #64, #178 ) ) ;
#83 = DIRECTION ( 'NONE',  ( 3.491481338843133355E-15, -1.224646799147353207E-16, 1.000000000000000000 ) ) ;
#84 = DATE_AND_TIME ( #125, #13 ) ;
#85 = CARTESIAN_POINT ( 'NONE',  ( 4.189777606611760026E-14, -1.469576158976823947E-15, 12.00000000000000000 ) ) ;
#86 = APPROVAL_ROLE ( '' ) ;
#87 = CC_DESIGN_PERSON_AND_ORGANIZATION_ASSIGNMENT ( #105, #230, ( #145 ) ) ;
#88 = DATE_AND_TIME ( #50, #233 ) ;
#89 = PERSON ( 'UNSPECIFIED', 'UNSPECIFIED', 'UNSPECIFIED', ('UNSPECIFIED'), ('UNSPECIFIED'), ('UNSPECIFIED') ) ;
#90 = EDGE_LOOP ( 'NONE', ( #150 ) ) ;
#91 = ORIENTED_EDGE ( 'NONE', *, *, #154, .T. ) ;
#92 = PRODUCT_DEFINITION ( 'UNKNOWN', '', #145, #63 ) ;
#93 = DIRECTION ( 'NONE',  ( -3.491481338843133355E-15, 1.224646799147353207E-16, -1.000000000000000000 ) ) ;
#94 = CONICAL_SURFACE ( 'NONE', #60, 1.600000000000000977, 0.7853981633974512766 ) ;
#95 = ADVANCED_FACE ( 'NONE', ( #231, #80 ), #23, .T. ) ;
#96 = AXIS2_PLACEMENT_3D ( 'NONE', #27, #5, #234 ) ;
#97 = PRODUCT ( '321734', '321734', '', ( #22 ) ) ;
#98 = DIRECTION ( 'NONE',  ( -3.491481338843133355E-15, 1.224646799147353207E-16, -1.000000000000000000 ) ) ;
#99 = EDGE_CURVE ( 'NONE', #227, #227, #160, .T. ) ;
#100 = DIRECTION ( 'NONE',  ( 4.549440813513092410E-31, 1.000000000000000000, 1.280553747030105573E-16 ) ) ;
#101 = PERSON_AND_ORGANIZATION ( #89, #221 ) ;
#102 = PRODUCT_DEFINITION_SHAPE ( 'NONE', 'NONE',  #92 ) ;
#103 = CC_DESIGN_APPROVAL ( #45, ( #145 ) ) ;
#104 = FACE_OUTER_BOUND ( 'NONE', #10, .T. ) ;
#105 = PERSON_AND_ORGANIZATION ( #89, #221 ) ;
#106 = DIRECTION ( 'NONE',  ( 4.275831445896958607E-31, 1.000000000000000000, 1.224646799147353207E-16 ) ) ;
#107 = CARTESIAN_POINT ( 'NONE',  ( 4.189777606611760026E-14, 1.904694923980583739E-32, 12.00000000000000000 ) ) ;
#108 = DATE_TIME_ROLE ( 'creation_date' ) ;
#109 = ORIENTED_EDGE ( 'NONE', *, *, #115, .T. ) ;
#110 = AXIS2_PLACEMENT_3D ( 'NONE', #43, #56, #170 ) ;
#111 = CALENDAR_DATE ( 2021, 2, 12 ) ;
#112 = ORIENTED_EDGE ( 'NONE', *, *, #118, .T. ) ;
#113 = EDGE_LOOP ( 'NONE', ( #149 ) ) ;
#114 = LOCAL_TIME ( 13, 57, 5.000000000000000000, #194 ) ;
#115 = EDGE_CURVE ( 'NONE', #208, #208, #36, .T. ) ;
#116 = FACE_OUTER_BOUND ( 'NONE', #219, .T. ) ;
#117 = CC_DESIGN_APPROVAL ( #35, ( #92 ) ) ;
#118 = EDGE_CURVE ( 'NONE', #21, #21, #72, .T. ) ;
#119 = AXIS2_PLACEMENT_3D ( 'NONE', #79, #25, #106 ) ;
#120 = DIRECTION ( 'NONE',  ( -3.491481338843133355E-15, 1.224646799147353207E-16, -1.000000000000000000 ) ) ;
#121 = PERSON_AND_ORGANIZATION ( #89, #221 ) ;
#122 = CARTESIAN_POINT ( 'NONE',  ( 2.779219145719134403E-13, -9.748188521212932624E-15, 79.60000000000000853 ) ) ;
#123 = CIRCLE ( 'NONE', #31, 2.540000000000035119 ) ;
#124 = FACE_OUTER_BOUND ( 'NONE', #49, .T. ) ;
#125 = CALENDAR_DATE ( 2021, 2, 12 ) ;
#126 = CARTESIAN_POINT ( 'NONE',  ( 2.793185071074506684E-13, -9.797174393178826052E-15, 80.00000000000000000 ) ) ;
#127 = DIRECTION ( 'NONE',  ( 0.0000000000000000000, 0.0000000000000000000, 1.000000000000000000 ) ) ;
#128 = APPROVAL_STATUS ( 'not_yet_approved' ) ;
#129 = AXIS2_PLACEMENT_3D ( 'NONE', #225, #93, #228 ) ;
#130 = EDGE_LOOP ( 'NONE', ( #67 ) ) ;
#131 = ADVANCED_FACE ( 'NONE', ( #142, #104 ), #189, .T. ) ;
#132 = CIRCLE ( 'NONE', #119, 2.140000000000033875 ) ;
#133 = APPLICATION_CONTEXT ( 'configuration controlled 3d designs of mechanical parts and assemblies' ) ;
#134 = ADVANCED_FACE ( 'NONE', ( #1, #40 ), #165, .T. ) ;
#135 = AXIS2_PLACEMENT_3D ( 'NONE', #77, #41, #156 ) ;
#136 = DIRECTION ( 'NONE',  ( -4.275831445896958607E-31, -1.000000000000000000, -1.224646799147353207E-16 ) ) ;
#137 = VERTEX_POINT ( 'NONE', #139 ) ;
#138 = CARTESIAN_POINT ( 'NONE',  ( -9.150279294219636347E-31, 3.209485934896426078E-32, -2.620744150175377392E-16 ) ) ;
#139 = CARTESIAN_POINT ( 'NONE',  ( 0.0000000000000000000, 2.140000000000033875, 0.0000000000000000000 ) ) ;
#140 = PRODUCT_RELATED_PRODUCT_CATEGORY ( 'detail', '', ( #97 ) ) ;
#141 = ADVANCED_BREP_SHAPE_REPRESENTATION ( '321734', ( #33, #2, #202 ), #213 ) ;
#142 = FACE_BOUND ( 'NONE', #185, .T. ) ;
#143 = PERSON_AND_ORGANIZATION ( #89, #221 ) ;
#144 = CLOSED_SHELL ( 'NONE', ( #73, #214, #223, #134 ) ) ;
#145 = PRODUCT_DEFINITION_FORMATION_WITH_SPECIFIED_SOURCE ( 'ANY', '', #97, .NOT_KNOWN. ) ;
#146 = DIRECTION ( 'NONE',  ( -3.491481338843133355E-15, 1.224646799147353207E-16, -1.000000000000000000 ) ) ;
#147 = APPROVAL_STATUS ( 'not_yet_approved' ) ;
#148 = VERTEX_POINT ( 'NONE', #217 ) ;
#149 = ORIENTED_EDGE ( 'NONE', *, *, #81, .T. ) ;
#150 = ORIENTED_EDGE ( 'NONE', *, *, #183, .T. ) ;
#151 = EDGE_LOOP ( 'NONE', ( #182 ) ) ;
#152 = APPROVAL_PERSON_ORGANIZATION ( #235, #205, #86 ) ;
#153 = CYLINDRICAL_SURFACE ( 'NONE', #129, 2.540000000000035119 ) ;
#154 = EDGE_CURVE ( 'NONE', #16, #16, #76, .T. ) ;
#155 = CARTESIAN_POINT ( 'NONE',  ( 4.189777606611760026E-14, 1.904694923980583739E-32, 12.00000000000000000 ) ) ;
#156 = DIRECTION ( 'NONE',  ( 0.0000000000000000000, 1.000000000000000000, 0.0000000000000000000 ) ) ;
#157 = DIRECTION ( 'NONE',  ( -3.491481338843133355E-15, 1.224646799147353207E-16, -1.000000000000000000 ) ) ;
#158 = DIRECTION ( 'NONE',  ( 1.000000000000000000, 0.0000000000000000000, 0.0000000000000000000 ) ) ;
#159 = CARTESIAN_POINT ( 'NONE',  ( 4.516338452529750688E-14, -1.584118284759122610E-15, 12.93530743608726574 ) ) ;
#160 = CIRCLE ( 'NONE', #52, 1.999999999999992228 ) ;
#161 = AXIS2_PLACEMENT_3D ( 'NONE', #155, #195, #136 ) ;
#162 = CARTESIAN_POINT ( 'NONE',  ( -4.575139647109818174E-31, 1.604742967448213039E-32, -1.310372075087688696E-16 ) ) ;
#163 = DATE_TIME_ROLE ( 'classification_date' ) ;
#164 = APPLICATION_PROTOCOL_DEFINITION ( 'international standard', 'config_control_design', 1994, #14 ) ;
#165 = CONICAL_SURFACE ( 'NONE', #18, 2.140000000000033875, 0.7853981633974508325 ) ;
#166 = CC_DESIGN_PERSON_AND_ORGANIZATION_ASSIGNMENT ( #6, #172, ( #97 ) ) ;
#167 = ORIENTED_EDGE ( 'NONE', *, *, #118, .F. ) ;
#168 = DIRECTION ( 'NONE',  ( -3.491481338843133355E-15, 1.224646799147353207E-16, -1.000000000000000000 ) ) ;
#169 = ADVANCED_FACE ( 'NONE', ( #124 ), #75, .F. ) ;
#170 = DIRECTION ( 'NONE',  ( 4.275831445896958607E-31, 1.000000000000000000, 1.224646799147353207E-16 ) ) ;
#171 = DIRECTION ( 'NONE',  ( 0.0000000000000000000, 1.000000000000000000, 0.0000000000000000000 ) ) ;
#172 = PERSON_AND_ORGANIZATION_ROLE ( 'design_owner' ) ;
#173 = CARTESIAN_POINT ( 'NONE',  ( 4.189777606611760026E-14, -1.469576158976823947E-15, 12.00000000000000000 ) ) ;
#174 = DATE_AND_TIME ( #4, #224 ) ;
#175 = DIRECTION ( 'NONE',  ( -3.491481338843133355E-15, 1.224646799147353207E-16, -1.000000000000000000 ) ) ;
#176 = FACE_OUTER_BOUND ( 'NONE', #90, .T. ) ;
#177 = CALENDAR_DATE ( 2021, 2, 12 ) ;
#178 = ADVANCED_FACE ( 'NONE', ( #193 ), #215, .F. ) ;
#179 = AXIS2_PLACEMENT_3D ( 'NONE', #126, #175, #171 ) ;
#180 = APPROVAL_PERSON_ORGANIZATION ( #101, #45, #11 ) ;
#181 =( NAMED_UNIT ( * ) SI_UNIT ( $, .STERADIAN. ) SOLID_ANGLE_UNIT ( ) );
#182 = ORIENTED_EDGE ( 'NONE', *, *, #19, .T. ) ;
#183 = EDGE_CURVE ( 'NONE', #137, #137, #132, .T. ) ;
#184 = EDGE_LOOP ( 'NONE', ( #91 ) ) ;
#185 = EDGE_LOOP ( 'NONE', ( #222 ) ) ;
#186 = APPROVAL_PERSON_ORGANIZATION ( #232, #35, #39 ) ;
#187 = FACE_BOUND ( 'NONE', #71, .T. ) ;
#188 = LOCAL_TIME ( 13, 57, 5.000000000000000000, #216 ) ;
#189 = CONICAL_SURFACE ( 'NONE', #54, 2.540000000000035119, 0.5235987755983003700 ) ;
#190 = CARTESIAN_POINT ( 'NONE',  ( 1.396592535537251764E-15, 2.540000000000035119, 0.3999999999999995226 ) ) ;
#191 = CARTESIAN_POINT ( 'NONE',  ( 2.793185071074506684E-13, 1.599999999999991207, 80.00000000000000000 ) ) ;
#192 = APPROVAL_STATUS ( 'not_yet_approved' ) ;
#193 = FACE_OUTER_BOUND ( 'NONE', #238, .T. ) ;
#194 = COORDINATED_UNIVERSAL_TIME_OFFSET ( 1, 0, .AHEAD. ) ;
#195 = DIRECTION ( 'NONE',  ( 3.491481338843133355E-15, -1.224646799147353207E-16, 1.000000000000000000 ) ) ;
#196 =( LENGTH_UNIT ( ) NAMED_UNIT ( * ) SI_UNIT ( .MILLI., .METRE. ) );
#197 = CC_DESIGN_DATE_AND_TIME_ASSIGNMENT ( #24, #108, ( #92 ) ) ;
#198 = PLANE ( 'NONE',  #207 ) ;
#199 =( NAMED_UNIT ( * ) PLANE_ANGLE_UNIT ( ) SI_UNIT ( $, .RADIAN. ) );
#200 = ORIENTED_EDGE ( 'NONE', *, *, #115, .F. ) ;
#201 = CIRCLE ( 'NONE', #17, 2.540000000000035119 ) ;
#202 = AXIS2_PLACEMENT_3D ( 'NONE', #209, #127, #158 ) ;
#203 = COORDINATED_UNIVERSAL_TIME_OFFSET ( 1, 0, .AHEAD. ) ;
#204 = DIRECTION ( 'NONE',  ( -3.491481338843133355E-15, 1.224646799147353207E-16, -1.000000000000000000 ) ) ;
#205 = APPROVAL ( #128, 'UNSPECIFIED' ) ;
#206 = CARTESIAN_POINT ( 'NONE',  ( 4.189777606611760026E-14, 2.540000000000033786, 12.00000000000000000 ) ) ;
#207 = AXIS2_PLACEMENT_3D ( 'NONE', #107, #83, #20 ) ;
#208 = VERTEX_POINT ( 'NONE', #191 ) ;
#209 = CARTESIAN_POINT ( 'NONE',  ( 0.0000000000000000000, 0.0000000000000000000, 0.0000000000000000000 ) ) ;
#210 = DIRECTION ( 'NONE',  ( 3.491481338843133355E-15, -1.224646799147353207E-16, 1.000000000000000000 ) ) ;
#211 = DIRECTION ( 'NONE',  ( -3.491481338843133355E-15, 1.224646799147353207E-16, -1.000000000000000000 ) ) ;
#212 = PERSON_AND_ORGANIZATION_ROLE ( 'classification_officer' ) ;
#213 =( GEOMETRIC_REPRESENTATION_CONTEXT ( 3 ) GLOBAL_UNCERTAINTY_ASSIGNED_CONTEXT ( ( #220 ) ) GLOBAL_UNIT_ASSIGNED_CONTEXT ( ( #196, #199, #181 ) ) REPRESENTATION_CONTEXT ( 'NONE', 'WORKASPACE' ) );
#214 = ADVANCED_FACE ( 'NONE', ( #7 ), #198, .T. ) ;
#215 = PLANE ( 'NONE',  #96 ) ;
#216 = COORDINATED_UNIVERSAL_TIME_OFFSET ( 1, 0, .AHEAD. ) ;
#217 = CARTESIAN_POINT ( 'NONE',  ( 4.189777606611760026E-14, 2.540000000000033786, 12.00000000000000000 ) ) ;
#218 = APPROVAL_DATE_TIME ( #44, #45 ) ;
#219 = EDGE_LOOP ( 'NONE', ( #237 ) ) ;
#220 = UNCERTAINTY_MEASURE_WITH_UNIT (LENGTH_MEASURE( 1.000000000000000082E-05 ), #196, 'distance_accuracy_value', 'NONE');
#221 = ORGANIZATION ( 'UNSPECIFIED', 'UNSPECIFIED', '' ) ;
#222 = ORIENTED_EDGE ( 'NONE', *, *, #99, .T. ) ;
#223 = ADVANCED_FACE ( 'NONE', ( #176 ), #8, .T. ) ;
#224 = LOCAL_TIME ( 13, 57, 5.000000000000000000, #26 ) ;
#225 = CARTESIAN_POINT ( 'NONE',  ( 0.0000000000000000000, 0.0000000000000000000, 0.0000000000000000000 ) ) ;
#226 = AXIS2_PLACEMENT_3D ( 'NONE', #162, #120, #65 ) ;
#227 = VERTEX_POINT ( 'NONE', #55 ) ;
#228 = DIRECTION ( 'NONE',  ( 4.275831445896958607E-31, 1.000000000000000000, 1.224646799147353207E-16 ) ) ;
#229 = DIRECTION ( 'NONE',  ( -4.275831445896958607E-31, -1.000000000000000000, -1.224646799147353207E-16 ) ) ;
#230 = PERSON_AND_ORGANIZATION_ROLE ( 'creator' ) ;
#231 = FACE_OUTER_BOUND ( 'NONE', #236, .T. ) ;
#232 = PERSON_AND_ORGANIZATION ( #89, #221 ) ;
#233 = LOCAL_TIME ( 13, 57, 5.000000000000000000, #203 ) ;
#234 = DIRECTION ( 'NONE',  ( 4.275831445896958607E-31, 1.000000000000000000, 1.224646799147353207E-16 ) ) ;
#235 = PERSON_AND_ORGANIZATION ( #89, #221 ) ;
#236 = EDGE_LOOP ( 'NONE', ( #12 ) ) ;
#237 = ORIENTED_EDGE ( 'NONE', *, *, #154, .F. ) ;
#238 = EDGE_LOOP ( 'NONE', ( #200 ) ) ;
#239 = CC_DESIGN_PERSON_AND_ORGANIZATION_ASSIGNMENT ( #121, #62, ( #92 ) ) ;
#240 = EDGE_LOOP ( 'NONE', ( #28 ) ) ;
#241 = CARTESIAN_POINT ( 'NONE',  ( 2.793185071074506684E-13, -9.797174393178826052E-15, 80.00000000000000000 ) ) ;
#242 = CC_DESIGN_SECURITY_CLASSIFICATION ( #48, ( #145 ) ) ;
#243 = CC_DESIGN_DATE_AND_TIME_ASSIGNMENT ( #84, #163, ( #48 ) ) ;
ENDSEC;
END-ISO-10303-21;
