ISO-10303-21;
HEADER;
FILE_DESCRIPTION (( 'STEP AP203' ),
    '1' );
FILE_NAME ('321733.step',
    '2021-12-02T12:57:05',
    ( '' ),
    ( '' ),
    'SwSTEP 2.0',
    'SolidWorks 2019',
    '' );
FILE_SCHEMA (( 'CONFIG_CONTROL_DESIGN' ));
ENDSEC;

DATA;
#1 = DATE_TIME_ROLE ( 'creation_date' ) ;
#2 = CIRCLE ( 'NONE', #38, 2.000000000000000888 ) ;
#3 = CALENDAR_DATE ( 2021, 2, 12 ) ;
#4 = PRODUCT_DEFINITION ( 'UNKNOWN', '', #122, #218 ) ;
#5 = ORIENTED_EDGE ( 'NONE', *, *, #50, .T. ) ;
#6 =( NAMED_UNIT ( * ) PLANE_ANGLE_UNIT ( ) SI_UNIT ( $, .RADIAN. ) );
#7 = ORIENTED_EDGE ( 'NONE', *, *, #75, .F. ) ;
#8 = DATE_AND_TIME ( #77, #213 ) ;
#9 = LOCAL_TIME ( 13, 57, 5.000000000000000000, #172 ) ;
#10 = CARTESIAN_POINT ( 'NONE',  ( -4.564450068495063555E-31, 1.600993567991554262E-32, -1.307310458089816807E-16 ) ) ;
#11 = DIRECTION ( 'NONE',  ( 0.0000000000000000000, 1.000000000000000000, 0.0000000000000000000 ) ) ;
#12 = ADVANCED_BREP_SHAPE_REPRESENTATION ( '321733', ( #96, #16, #151 ), #229 ) ;
#13 = CYLINDRICAL_SURFACE ( 'NONE', #78, 2.535000000000029896 ) ;
#14 = AXIS2_PLACEMENT_3D ( 'NONE', #123, #47, #187 ) ;
#15 = DIRECTION ( 'NONE',  ( 0.0000000000000000000, 1.000000000000000000, 0.0000000000000000000 ) ) ;
#16 = MANIFOLD_SOLID_BREP ( 'Corps-Déplacer/Copier1[2]', #185 ) ;
#17 = DIRECTION ( 'NONE',  ( 0.0000000000000000000, 1.000000000000000000, 0.0000000000000000000 ) ) ;
#18 = CARTESIAN_POINT ( 'NONE',  ( 4.189777606611760026E-14, 2.535000000000028564, 12.00000000000000000 ) ) ;
#19 = AXIS2_PLACEMENT_3D ( 'NONE', #217, #180, #202 ) ;
#20 = COORDINATED_UNIVERSAL_TIME_OFFSET ( 1, 0, .AHEAD. ) ;
#21 = PERSON_AND_ORGANIZATION ( #119, #156 ) ;
#22 = ADVANCED_FACE ( 'NONE', ( #135, #101 ), #62, .T. ) ;
#23 = APPROVAL_DATE_TIME ( #134, #168 ) ;
#24 = EDGE_LOOP ( 'NONE', ( #61 ) ) ;
#25 = VERTEX_POINT ( 'NONE', #150 ) ;
#26 = CARTESIAN_POINT ( 'NONE',  ( 0.0000000000000000000, 0.0000000000000000000, 0.0000000000000000000 ) ) ;
#27 = PLANE ( 'NONE',  #19 ) ;
#28 = ADVANCED_FACE ( 'NONE', ( #142, #84 ), #203, .T. ) ;
#29 = FACE_OUTER_BOUND ( 'NONE', #80, .T. ) ;
#30 = CARTESIAN_POINT ( 'NONE',  ( 2.779219145719134403E-13, -9.748188521212932624E-15, 79.60000000000000853 ) ) ;
#31 = COORDINATED_UNIVERSAL_TIME_OFFSET ( 1, 0, .AHEAD. ) ;
#32 = CC_DESIGN_DATE_AND_TIME_ASSIGNMENT ( #152, #155, ( #169 ) ) ;
#33 = DIRECTION ( 'NONE',  ( -3.491481338843133355E-15, 1.224646799147353207E-16, -1.000000000000000000 ) ) ;
#34 = CARTESIAN_POINT ( 'NONE',  ( -9.128900136990127110E-31, 3.201987135983108524E-32, -2.614620916179633614E-16 ) ) ;
#35 = DIRECTION ( 'NONE',  ( 4.275831445896958607E-31, 1.000000000000000000, 1.224646799147353207E-16 ) ) ;
#36 = AXIS2_PLACEMENT_3D ( 'NONE', #140, #204, #164 ) ;
#37 = EDGE_CURVE ( 'NONE', #146, #146, #88, .T. ) ;
#38 = AXIS2_PLACEMENT_3D ( 'NONE', #30, #201, #11 ) ;
#39 = APPROVAL_STATUS ( 'not_yet_approved' ) ;
#40 = PERSON_AND_ORGANIZATION_ROLE ( 'creator' ) ;
#41 = ORIENTED_EDGE ( 'NONE', *, *, #50, .F. ) ;
#42 = DIRECTION ( 'NONE',  ( 0.0000000000000000000, 0.0000000000000000000, 1.000000000000000000 ) ) ;
#43 = APPROVAL_PERSON_ORGANIZATION ( #136, #223, #230 ) ;
#44 = EDGE_LOOP ( 'NONE', ( #82 ) ) ;
#45 = EDGE_CURVE ( 'NONE', #226, #226, #105, .T. ) ;
#46 = DATE_AND_TIME ( #3, #189 ) ;
#47 = DIRECTION ( 'NONE',  ( 3.491481338843133355E-15, -1.224646799147353207E-16, 1.000000000000000000 ) ) ;
#48 = AXIS2_PLACEMENT_3D ( 'NONE', #158, #234, #163 ) ;
#49 = FACE_OUTER_BOUND ( 'NONE', #153, .T. ) ;
#50 = EDGE_CURVE ( 'NONE', #188, #188, #224, .T. ) ;
#51 = DIRECTION ( 'NONE',  ( 4.275831445896958607E-31, 1.000000000000000000, 1.224646799147353207E-16 ) ) ;
#52 = DIRECTION ( 'NONE',  ( -3.491481338843133355E-15, 1.224646799147353207E-16, -1.000000000000000000 ) ) ;
#53 = LOCAL_TIME ( 13, 57, 5.000000000000000000, #31 ) ;
#54 = DIRECTION ( 'NONE',  ( 0.0000000000000000000, 1.000000000000000000, 0.0000000000000000000 ) ) ;
#55 = CARTESIAN_POINT ( 'NONE',  ( 2.793185071074506684E-13, 1.599999999999991207, 80.00000000000000000 ) ) ;
#56 = CC_DESIGN_SECURITY_CLASSIFICATION ( #169, ( #122 ) ) ;
#57 = EDGE_LOOP ( 'NONE', ( #149 ) ) ;
#58 = VERTEX_POINT ( 'NONE', #233 ) ;
#59 = ORIENTED_EDGE ( 'NONE', *, *, #137, .T. ) ;
#60 = APPROVAL_STATUS ( 'not_yet_approved' ) ;
#61 = ORIENTED_EDGE ( 'NONE', *, *, #45, .T. ) ;
#62 = CONICAL_SURFACE ( 'NONE', #112, 1.600000000000000977, 0.7853981633974512766 ) ;
#63 = APPROVAL_STATUS ( 'not_yet_approved' ) ;
#64 = CC_DESIGN_DATE_AND_TIME_ASSIGNMENT ( #46, #1, ( #4 ) ) ;
#65 = ORIENTED_EDGE ( 'NONE', *, *, #37, .T. ) ;
#66 = PERSON_AND_ORGANIZATION_ROLE ( 'creator' ) ;
#67 = CARTESIAN_POINT ( 'NONE',  ( 2.793185071074506684E-13, -9.797174393178826052E-15, 80.00000000000000000 ) ) ;
#68 = UNCERTAINTY_MEASURE_WITH_UNIT (LENGTH_MEASURE( 1.000000000000000082E-05 ), #130, 'distance_accuracy_value', 'NONE');
#69 = CARTESIAN_POINT ( 'NONE',  ( 2.793185071074506684E-13, 1.199807826129472128E-32, 80.00000000000000000 ) ) ;
#70 = CARTESIAN_POINT ( 'NONE',  ( 4.189777606611760026E-14, -1.469576158976823947E-15, 12.00000000000000000 ) ) ;
#71 = CYLINDRICAL_SURFACE ( 'NONE', #241, 1.999999999999996669 ) ;
#72 = CARTESIAN_POINT ( 'NONE',  ( -9.128900136990127110E-31, 3.201987135983108524E-32, -2.614620916179633614E-16 ) ) ;
#73 = APPROVAL ( #39, 'UNSPECIFIED' ) ;
#74 = CARTESIAN_POINT ( 'NONE',  ( 4.513314740993469398E-14, 1.999999999999990452, 12.92664718204941110 ) ) ;
#75 = EDGE_CURVE ( 'NONE', #111, #111, #166, .T. ) ;
#76 = AXIS2_PLACEMENT_3D ( 'NONE', #220, #87, #86 ) ;
#77 = CALENDAR_DATE ( 2021, 2, 12 ) ;
#78 = AXIS2_PLACEMENT_3D ( 'NONE', #159, #237, #51 ) ;
#79 = CALENDAR_DATE ( 2021, 2, 12 ) ;
#80 = EDGE_LOOP ( 'NONE', ( #41 ) ) ;
#81 = PERSON_AND_ORGANIZATION_ROLE ( 'classification_officer' ) ;
#82 = ORIENTED_EDGE ( 'NONE', *, *, #160, .F. ) ;
#83 = APPROVAL_DATE_TIME ( #8, #223 ) ;
#84 = FACE_OUTER_BOUND ( 'NONE', #211, .T. ) ;
#85 = ADVANCED_FACE ( 'NONE', ( #127 ), #27, .T. ) ;
#86 = DIRECTION ( 'NONE',  ( 0.0000000000000000000, 1.000000000000000000, 0.0000000000000000000 ) ) ;
#87 = DIRECTION ( 'NONE',  ( -3.491481338843133355E-15, 1.224646799147353207E-16, -1.000000000000000000 ) ) ;
#88 = CIRCLE ( 'NONE', #117, 2.535000000000029896 ) ;
#89 = DIRECTION ( 'NONE',  ( -4.275831445896958607E-31, -1.000000000000000000, -1.224646799147353207E-16 ) ) ;
#90 = DIRECTION ( 'NONE',  ( -3.491481338843133355E-15, 1.224646799147353207E-16, -1.000000000000000000 ) ) ;
#91 = VERTEX_POINT ( 'NONE', #157 ) ;
#92 = DATE_AND_TIME ( #184, #53 ) ;
#93 = AXIS2_PLACEMENT_3D ( 'NONE', #70, #52, #17 ) ;
#94 = EDGE_CURVE ( 'NONE', #91, #91, #2, .T. ) ;
#95 = CIRCLE ( 'NONE', #179, 2.535000000000029896 ) ;
#96 = MANIFOLD_SOLID_BREP ( 'Corps-Déplacer/Copier1[1]', #173 ) ;
#97 = CALENDAR_DATE ( 2021, 2, 12 ) ;
#98 = LOCAL_TIME ( 13, 57, 5.000000000000000000, #20 ) ;
#99 = PERSON_AND_ORGANIZATION ( #119, #156 ) ;
#100 = PRODUCT_DEFINITION_SHAPE ( 'NONE', 'NONE',  #4 ) ;
#101 = FACE_BOUND ( 'NONE', #231, .T. ) ;
#102 = APPLICATION_PROTOCOL_DEFINITION ( 'international standard', 'config_control_design', 1994, #148 ) ;
#103 = DIRECTION ( 'NONE',  ( 1.000000000000000000, 0.0000000000000000000, 0.0000000000000000000 ) ) ;
#104 = PLANE ( 'NONE',  #198 ) ;
#105 = CIRCLE ( 'NONE', #36, 1.999999999999992228 ) ;
#106 = DIRECTION ( 'NONE',  ( -3.491481338843133355E-15, 1.224646799147353207E-16, -1.000000000000000000 ) ) ;
#107 = DIRECTION ( 'NONE',  ( -3.491481338843133355E-15, 1.224646799147353207E-16, -1.000000000000000000 ) ) ;
#108 = FACE_OUTER_BOUND ( 'NONE', #208, .T. ) ;
#109 = CC_DESIGN_APPROVAL ( #223, ( #4 ) ) ;
#110 = DIRECTION ( 'NONE',  ( 4.558414069555534300E-31, 1.000000000000000000, 1.283079494065670657E-16 ) ) ;
#111 = VERTEX_POINT ( 'NONE', #18 ) ;
#112 = AXIS2_PLACEMENT_3D ( 'NONE', #67, #33, #54 ) ;
#113 = APPROVAL_PERSON_ORGANIZATION ( #99, #168, #191 ) ;
#114 = PERSON_AND_ORGANIZATION ( #119, #156 ) ;
#115 = EDGE_LOOP ( 'NONE', ( #133 ) ) ;
#116 = PERSON_AND_ORGANIZATION ( #119, #156 ) ;
#117 = AXIS2_PLACEMENT_3D ( 'NONE', #240, #125, #15 ) ;
#118 = EDGE_LOOP ( 'NONE', ( #59 ) ) ;
#119 = PERSON ( 'UNSPECIFIED', 'UNSPECIFIED', 'UNSPECIFIED', ('UNSPECIFIED'), ('UNSPECIFIED'), ('UNSPECIFIED') ) ;
#120 = ORIENTED_EDGE ( 'NONE', *, *, #45, .F. ) ;
#121 = FACE_BOUND ( 'NONE', #44, .T. ) ;
#122 = PRODUCT_DEFINITION_FORMATION_WITH_SPECIFIED_SOURCE ( 'ANY', '', #143, .NOT_KNOWN. ) ;
#123 = CARTESIAN_POINT ( 'NONE',  ( 4.189777606611760026E-14, 1.900945524523924963E-32, 12.00000000000000000 ) ) ;
#124 = FACE_OUTER_BOUND ( 'NONE', #154, .T. ) ;
#125 = DIRECTION ( 'NONE',  ( -3.491481338843133355E-15, 1.224646799147353207E-16, -1.000000000000000000 ) ) ;
#126 = CIRCLE ( 'NONE', #132, 2.135000000000028209 ) ;
#127 = FACE_OUTER_BOUND ( 'NONE', #210, .T. ) ;
#128 = APPROVAL_ROLE ( '' ) ;
#129 = CC_DESIGN_PERSON_AND_ORGANIZATION_ASSIGNMENT ( #171, #40, ( #122 ) ) ;
#130 =( LENGTH_UNIT ( ) NAMED_UNIT ( * ) SI_UNIT ( .MILLI., .METRE. ) );
#131 = ADVANCED_FACE ( 'NONE', ( #29 ), #235, .F. ) ;
#132 = AXIS2_PLACEMENT_3D ( 'NONE', #34, #90, #225 ) ;
#133 = ORIENTED_EDGE ( 'NONE', *, *, #75, .T. ) ;
#134 = DATE_AND_TIME ( #97, #98 ) ;
#135 = FACE_OUTER_BOUND ( 'NONE', #215, .T. ) ;
#136 = PERSON_AND_ORGANIZATION ( #119, #156 ) ;
#137 = EDGE_CURVE ( 'NONE', #25, #25, #95, .T. ) ;
#138 = DIRECTION ( 'NONE',  ( -3.491481338843133355E-15, 1.224646799147353207E-16, -1.000000000000000000 ) ) ;
#139 = AXIS2_PLACEMENT_3D ( 'NONE', #69, #107, #186 ) ;
#140 = CARTESIAN_POINT ( 'NONE',  ( 4.513314740993469398E-14, -1.583057709520396382E-15, 12.92664718204941110 ) ) ;
#141 = PLANE ( 'NONE',  #14 ) ;
#142 = FACE_BOUND ( 'NONE', #24, .T. ) ;
#143 = PRODUCT ( '321733', '321733', '', ( #209 ) ) ;
#144 = DIRECTION ( 'NONE',  ( 3.491481338843133355E-15, -1.224646799147353207E-16, 1.000000000000000000 ) ) ;
#145 = CC_DESIGN_APPROVAL ( #73, ( #169 ) ) ;
#146 = VERTEX_POINT ( 'NONE', #205 ) ;
#147 = CONICAL_SURFACE ( 'NONE', #206, 2.135000000000028209, 0.7853981633974500554 ) ;
#148 = APPLICATION_CONTEXT ( 'configuration controlled 3d designs of mechanical parts and assemblies' ) ;
#149 = ORIENTED_EDGE ( 'NONE', *, *, #137, .F. ) ;
#150 = CARTESIAN_POINT ( 'NONE',  ( 1.396592535537254131E-15, 2.535000000000029896, 0.4000000000000001887 ) ) ;
#151 = AXIS2_PLACEMENT_3D ( 'NONE', #26, #42, #103 ) ;
#152 = DATE_AND_TIME ( #79, #9 ) ;
#153 = EDGE_LOOP ( 'NONE', ( #65 ) ) ;
#154 = EDGE_LOOP ( 'NONE', ( #120 ) ) ;
#155 = DATE_TIME_ROLE ( 'classification_date' ) ;
#156 = ORGANIZATION ( 'UNSPECIFIED', 'UNSPECIFIED', '' ) ;
#157 = CARTESIAN_POINT ( 'NONE',  ( 2.779219145719134403E-13, 1.999999999999991340, 79.60000000000000853 ) ) ;
#158 = CARTESIAN_POINT ( 'NONE',  ( 4.189777606611760026E-14, -1.469576158976823947E-15, 12.00000000000000000 ) ) ;
#159 = CARTESIAN_POINT ( 'NONE',  ( 0.0000000000000000000, 0.0000000000000000000, 0.0000000000000000000 ) ) ;
#160 = EDGE_CURVE ( 'NONE', #58, #58, #126, .T. ) ;
#161 = APPROVAL_DATE_TIME ( #92, #73 ) ;
#162 = APPLICATION_CONTEXT ( 'configuration controlled 3d designs of mechanical parts and assemblies' ) ;
#163 = DIRECTION ( 'NONE',  ( 0.0000000000000000000, 1.000000000000000000, 0.0000000000000000000 ) ) ;
#164 = DIRECTION ( 'NONE',  ( 0.0000000000000000000, 1.000000000000000000, 0.0000000000000000000 ) ) ;
#165 = CARTESIAN_POINT ( 'NONE',  ( 0.0000000000000000000, 0.0000000000000000000, 0.0000000000000000000 ) ) ;
#166 = CIRCLE ( 'NONE', #48, 2.535000000000029896 ) ;
#167 = SHAPE_DEFINITION_REPRESENTATION ( #100, #12 ) ;
#168 = APPROVAL ( #60, 'UNSPECIFIED' ) ;
#169 = SECURITY_CLASSIFICATION ( '', '', #192 ) ;
#170 = EDGE_LOOP ( 'NONE', ( #228 ) ) ;
#171 = PERSON_AND_ORGANIZATION ( #119, #156 ) ;
#172 = COORDINATED_UNIVERSAL_TIME_OFFSET ( 1, 0, .AHEAD. ) ;
#173 = CLOSED_SHELL ( 'NONE', ( #178, #28, #243, #22, #131 ) ) ;
#174 = ORIENTED_EDGE ( 'NONE', *, *, #94, .F. ) ;
#175 = PERSON_AND_ORGANIZATION_ROLE ( 'design_supplier' ) ;
#176 = COORDINATED_UNIVERSAL_TIME_OFFSET ( 1, 0, .AHEAD. ) ;
#177 = ORIENTED_EDGE ( 'NONE', *, *, #37, .F. ) ;
#178 = ADVANCED_FACE ( 'NONE', ( #49 ), #141, .F. ) ;
#179 = AXIS2_PLACEMENT_3D ( 'NONE', #221, #138, #110 ) ;
#180 = DIRECTION ( 'NONE',  ( 3.491481338843133355E-15, -1.224646799147353207E-16, 1.000000000000000000 ) ) ;
#181 = FACE_OUTER_BOUND ( 'NONE', #115, .T. ) ;
#182 = ADVANCED_FACE ( 'NONE', ( #222, #121 ), #147, .T. ) ;
#183 = FACE_OUTER_BOUND ( 'NONE', #57, .T. ) ;
#184 = CALENDAR_DATE ( 2021, 2, 12 ) ;
#185 = CLOSED_SHELL ( 'NONE', ( #227, #85, #190, #182 ) ) ;
#186 = DIRECTION ( 'NONE',  ( 4.275831445896958607E-31, 1.000000000000000000, 1.224646799147353207E-16 ) ) ;
#187 = DIRECTION ( 'NONE',  ( -4.275831445896958607E-31, -1.000000000000000000, -1.224646799147353207E-16 ) ) ;
#188 = VERTEX_POINT ( 'NONE', #55 ) ;
#189 = LOCAL_TIME ( 13, 57, 5.000000000000000000, #216 ) ;
#190 = ADVANCED_FACE ( 'NONE', ( #199 ), #104, .T. ) ;
#191 = APPROVAL_ROLE ( '' ) ;
#192 = SECURITY_CLASSIFICATION_LEVEL ( 'unclassified' ) ;
#193 = PERSON_AND_ORGANIZATION_ROLE ( 'design_owner' ) ;
#194 = ORIENTED_EDGE ( 'NONE', *, *, #94, .T. ) ;
#195 = PERSON_AND_ORGANIZATION ( #119, #156 ) ;
#196 = CC_DESIGN_PERSON_AND_ORGANIZATION_ASSIGNMENT ( #21, #81, ( #169 ) ) ;
#197 = APPLICATION_PROTOCOL_DEFINITION ( 'international standard', 'config_control_design', 1994, #162 ) ;
#198 = AXIS2_PLACEMENT_3D ( 'NONE', #10, #106, #238 ) ;
#199 = FACE_OUTER_BOUND ( 'NONE', #170, .T. ) ;
#200 = CC_DESIGN_PERSON_AND_ORGANIZATION_ASSIGNMENT ( #114, #175, ( #122 ) ) ;
#201 = DIRECTION ( 'NONE',  ( -3.491481338843133355E-15, 1.224646799147353207E-16, -1.000000000000000000 ) ) ;
#202 = DIRECTION ( 'NONE',  ( -4.275831445896958607E-31, -1.000000000000000000, -1.224646799147353207E-16 ) ) ;
#203 = CONICAL_SURFACE ( 'NONE', #93, 2.535000000000029896, 0.5235987755983003700 ) ;
#204 = DIRECTION ( 'NONE',  ( -3.491481338843133355E-15, 1.224646799147353207E-16, -1.000000000000000000 ) ) ;
#205 = CARTESIAN_POINT ( 'NONE',  ( 4.189777606611760026E-14, 2.535000000000028564, 12.00000000000000000 ) ) ;
#206 = AXIS2_PLACEMENT_3D ( 'NONE', #72, #144, #89 ) ;
#207 = CC_DESIGN_PERSON_AND_ORGANIZATION_ASSIGNMENT ( #195, #66, ( #4 ) ) ;
#208 = EDGE_LOOP ( 'NONE', ( #194 ) ) ;
#209 = MECHANICAL_CONTEXT ( 'NONE', #148, 'mechanical' ) ;
#210 = EDGE_LOOP ( 'NONE', ( #7 ) ) ;
#211 = EDGE_LOOP ( 'NONE', ( #177 ) ) ;
#212 =( NAMED_UNIT ( * ) SI_UNIT ( $, .STERADIAN. ) SOLID_ANGLE_UNIT ( ) );
#213 = LOCAL_TIME ( 13, 57, 5.000000000000000000, #176 ) ;
#214 = CC_DESIGN_PERSON_AND_ORGANIZATION_ASSIGNMENT ( #116, #193, ( #143 ) ) ;
#215 = EDGE_LOOP ( 'NONE', ( #174 ) ) ;
#216 = COORDINATED_UNIVERSAL_TIME_OFFSET ( 1, 0, .AHEAD. ) ;
#217 = CARTESIAN_POINT ( 'NONE',  ( 4.189777606611760026E-14, 1.900945524523924963E-32, 12.00000000000000000 ) ) ;
#218 = DESIGN_CONTEXT ( 'detailed design', #162, 'design' ) ;
#219 = CC_DESIGN_APPROVAL ( #168, ( #122 ) ) ;
#220 = CARTESIAN_POINT ( 'NONE',  ( 2.793185071074506684E-13, -9.797174393178826052E-15, 80.00000000000000000 ) ) ;
#221 = CARTESIAN_POINT ( 'NONE',  ( 1.396592535537252948E-15, -4.898587196589411226E-17, 0.3999999999999998557 ) ) ;
#222 = FACE_OUTER_BOUND ( 'NONE', #118, .T. ) ;
#223 = APPROVAL ( #63, 'UNSPECIFIED' ) ;
#224 = CIRCLE ( 'NONE', #76, 1.600000000000000977 ) ;
#225 = DIRECTION ( 'NONE',  ( 4.275831445896958607E-31, 1.000000000000000000, 1.224646799147353207E-16 ) ) ;
#226 = VERTEX_POINT ( 'NONE', #74 ) ;
#227 = ADVANCED_FACE ( 'NONE', ( #181, #183 ), #13, .T. ) ;
#228 = ORIENTED_EDGE ( 'NONE', *, *, #160, .T. ) ;
#229 =( GEOMETRIC_REPRESENTATION_CONTEXT ( 3 ) GLOBAL_UNCERTAINTY_ASSIGNED_CONTEXT ( ( #68 ) ) GLOBAL_UNIT_ASSIGNED_CONTEXT ( ( #130, #6, #212 ) ) REPRESENTATION_CONTEXT ( 'NONE', 'WORKASPACE' ) );
#230 = APPROVAL_ROLE ( '' ) ;
#231 = EDGE_LOOP ( 'NONE', ( #5 ) ) ;
#232 = PERSON_AND_ORGANIZATION ( #119, #156 ) ;
#233 = CARTESIAN_POINT ( 'NONE',  ( 0.0000000000000000000, 2.135000000000028209, 0.0000000000000000000 ) ) ;
#234 = DIRECTION ( 'NONE',  ( -3.491481338843133355E-15, 1.224646799147353207E-16, -1.000000000000000000 ) ) ;
#235 = PLANE ( 'NONE',  #139 ) ;
#236 = APPROVAL_PERSON_ORGANIZATION ( #232, #73, #128 ) ;
#237 = DIRECTION ( 'NONE',  ( -3.491481338843133355E-15, 1.224646799147353207E-16, -1.000000000000000000 ) ) ;
#238 = DIRECTION ( 'NONE',  ( 4.275831445896958607E-31, 1.000000000000000000, 1.224646799147353207E-16 ) ) ;
#239 = PRODUCT_RELATED_PRODUCT_CATEGORY ( 'detail', '', ( #143 ) ) ;
#240 = CARTESIAN_POINT ( 'NONE',  ( 4.189777606611760026E-14, -1.469576158976823947E-15, 12.00000000000000000 ) ) ;
#241 = AXIS2_PLACEMENT_3D ( 'NONE', #165, #242, #35 ) ;
#242 = DIRECTION ( 'NONE',  ( -3.491481338843133355E-15, 1.224646799147353207E-16, -1.000000000000000000 ) ) ;
#243 = ADVANCED_FACE ( 'NONE', ( #124, #108 ), #71, .T. ) ;
ENDSEC;
END-ISO-10303-21;
