ISO-10303-21;
HEADER;
FILE_DESCRIPTION (( 'STEP AP203' ),
    '1' );
FILE_NAME ('321732.step',
    '2021-12-02T12:57:04',
    ( '' ),
    ( '' ),
    'SwSTEP 2.0',
    'SolidWorks 2019',
    '' );
FILE_SCHEMA (( 'CONFIG_CONTROL_DESIGN' ));
ENDSEC;

DATA;
#1 = APPLICATION_PROTOCOL_DEFINITION ( 'international standard', 'config_control_design', 1994, #235 ) ;
#2 = AXIS2_PLACEMENT_3D ( 'NONE', #107, #240, #68 ) ;
#3 = VERTEX_POINT ( 'NONE', #24 ) ;
#4 = APPROVAL_DATE_TIME ( #97, #141 ) ;
#5 = APPROVAL_STATUS ( 'not_yet_approved' ) ;
#6 = VERTEX_POINT ( 'NONE', #137 ) ;
#7 = AXIS2_PLACEMENT_3D ( 'NONE', #17, #51, #113 ) ;
#8 = PERSON_AND_ORGANIZATION_ROLE ( 'design_supplier' ) ;
#9 = EDGE_LOOP ( 'NONE', ( #217 ) ) ;
#10 = APPROVAL_STATUS ( 'not_yet_approved' ) ;
#11 = EDGE_LOOP ( 'NONE', ( #66 ) ) ;
#12 = DATE_AND_TIME ( #62, #73 ) ;
#13 = EDGE_LOOP ( 'NONE', ( #184 ) ) ;
#14 = AXIS2_PLACEMENT_3D ( 'NONE', #56, #111, #133 ) ;
#15 = ADVANCED_FACE ( 'NONE', ( #106, #147 ), #21, .T. ) ;
#16 = FACE_BOUND ( 'NONE', #125, .T. ) ;
#17 = CARTESIAN_POINT ( 'NONE',  ( -4.553760489880322074E-31, 1.597244168534899864E-32, -1.304248841091948615E-16 ) ) ;
#18 = EDGE_CURVE ( 'NONE', #44, #44, #232, .T. ) ;
#19 = FACE_OUTER_BOUND ( 'NONE', #167, .T. ) ;
#20 = CONICAL_SURFACE ( 'NONE', #193, 2.530000000000030003, 0.5235987755983001479 ) ;
#21 = CYLINDRICAL_SURFACE ( 'NONE', #197, 2.530000000000030447 ) ;
#22 = CARTESIAN_POINT ( 'NONE',  ( 0.0000000000000000000, 0.0000000000000000000, 0.0000000000000000000 ) ) ;
#23 = CALENDAR_DATE ( 2021, 2, 12 ) ;
#24 = CARTESIAN_POINT ( 'NONE',  ( 2.793185071074506684E-13, 1.599999999999991207, 80.00000000000000000 ) ) ;
#25 = VERTEX_POINT ( 'NONE', #58 ) ;
#26 = DATE_AND_TIME ( #144, #162 ) ;
#27 = APPROVAL_PERSON_ORGANIZATION ( #178, #100, #231 ) ;
#28 = EDGE_LOOP ( 'NONE', ( #88 ) ) ;
#29 = ORIENTED_EDGE ( 'NONE', *, *, #52, .T. ) ;
#30 = CC_DESIGN_DATE_AND_TIME_ASSIGNMENT ( #195, #98, ( #194 ) ) ;
#31 = CARTESIAN_POINT ( 'NONE',  ( -9.107520979760644148E-31, 3.194488337069799729E-32, -2.608497682183897231E-16 ) ) ;
#32 = CONICAL_SURFACE ( 'NONE', #134, 2.130000000000028759, 0.7853981633974510546 ) ;
#33 = FACE_OUTER_BOUND ( 'NONE', #203, .T. ) ;
#34 = CC_DESIGN_PERSON_AND_ORGANIZATION_ASSIGNMENT ( #101, #85, ( #201 ) ) ;
#35 = CARTESIAN_POINT ( 'NONE',  ( 4.189777606611760026E-14, 1.897196125067270291E-32, 12.00000000000000000 ) ) ;
#36 = PLANE ( 'NONE',  #7 ) ;
#37 = CC_DESIGN_APPROVAL ( #141, ( #194 ) ) ;
#38 = DIRECTION ( 'NONE',  ( 0.0000000000000000000, 1.000000000000000000, 0.0000000000000000000 ) ) ;
#39 = CARTESIAN_POINT ( 'NONE',  ( 4.189777606611760026E-14, 2.530000000000028670, 12.00000000000000000 ) ) ;
#40 = CIRCLE ( 'NONE', #121, 2.130000000000028759 ) ;
#41 = APPROVAL_ROLE ( '' ) ;
#42 = CC_DESIGN_APPROVAL ( #49, ( #201 ) ) ;
#43 = DATE_AND_TIME ( #138, #161 ) ;
#44 = VERTEX_POINT ( 'NONE', #211 ) ;
#45 = EDGE_LOOP ( 'NONE', ( #143 ) ) ;
#46 = PRODUCT_RELATED_PRODUCT_CATEGORY ( 'detail', '', ( #112 ) ) ;
#47 = ORIENTED_EDGE ( 'NONE', *, *, #170, .F. ) ;
#48 = EDGE_LOOP ( 'NONE', ( #183 ) ) ;
#49 = APPROVAL ( #10, 'UNSPECIFIED' ) ;
#50 = FACE_OUTER_BOUND ( 'NONE', #122, .T. ) ;
#51 = DIRECTION ( 'NONE',  ( -3.491481338843133355E-15, 1.224646799147353207E-16, -1.000000000000000000 ) ) ;
#52 = EDGE_CURVE ( 'NONE', #3, #3, #67, .T. ) ;
#53 = CIRCLE ( 'NONE', #90, 1.999999999999992228 ) ;
#54 = DIRECTION ( 'NONE',  ( 0.0000000000000000000, 1.000000000000000000, 0.0000000000000000000 ) ) ;
#55 = CYLINDRICAL_SURFACE ( 'NONE', #82, 1.999999999999996669 ) ;
#56 = CARTESIAN_POINT ( 'NONE',  ( 2.779219145719134403E-13, -9.748188521212932624E-15, 79.60000000000000853 ) ) ;
#57 = PERSON_AND_ORGANIZATION ( #234, #210 ) ;
#58 = CARTESIAN_POINT ( 'NONE',  ( 4.510291029457192524E-14, 1.999999999999990452, 12.91798692801156712 ) ) ;
#59 = MANIFOLD_SOLID_BREP ( 'Corps-Déplacer/Copier1[1]', #200 ) ;
#60 = COORDINATED_UNIVERSAL_TIME_OFFSET ( 1, 0, .AHEAD. ) ;
#61 = DESIGN_CONTEXT ( 'detailed design', #235, 'design' ) ;
#62 = CALENDAR_DATE ( 2021, 2, 12 ) ;
#63 = PERSON_AND_ORGANIZATION ( #234, #210 ) ;
#64 = ORIENTED_EDGE ( 'NONE', *, *, #131, .F. ) ;
#65 = EDGE_CURVE ( 'NONE', #25, #25, #53, .T. ) ;
#66 = ORIENTED_EDGE ( 'NONE', *, *, #18, .T. ) ;
#67 = CIRCLE ( 'NONE', #114, 1.600000000000000977 ) ;
#68 = DIRECTION ( 'NONE',  ( 0.0000000000000000000, 1.000000000000000000, 0.0000000000000000000 ) ) ;
#69 = EDGE_CURVE ( 'NONE', #6, #6, #40, .T. ) ;
#70 = FACE_OUTER_BOUND ( 'NONE', #87, .T. ) ;
#71 = DIRECTION ( 'NONE',  ( 0.0000000000000000000, 1.000000000000000000, 0.0000000000000000000 ) ) ;
#72 = CIRCLE ( 'NONE', #14, 2.000000000000000888 ) ;
#73 = LOCAL_TIME ( 13, 57, 4.000000000000000000, #123 ) ;
#74 = DIRECTION ( 'NONE',  ( -3.491481338843133355E-15, 1.224646799147353207E-16, -1.000000000000000000 ) ) ;
#75 = FACE_OUTER_BOUND ( 'NONE', #104, .T. ) ;
#76 = EDGE_CURVE ( 'NONE', #214, #214, #72, .T. ) ;
#77 = PERSON_AND_ORGANIZATION ( #234, #210 ) ;
#78 = APPROVAL_PERSON_ORGANIZATION ( #77, #141, #41 ) ;
#79 = COORDINATED_UNIVERSAL_TIME_OFFSET ( 1, 0, .AHEAD. ) ;
#80 = PERSON_AND_ORGANIZATION ( #234, #210 ) ;
#81 = CC_DESIGN_PERSON_AND_ORGANIZATION_ASSIGNMENT ( #63, #103, ( #198 ) ) ;
#82 = AXIS2_PLACEMENT_3D ( 'NONE', #173, #243, #207 ) ;
#83 =( NAMED_UNIT ( * ) SI_UNIT ( $, .STERADIAN. ) SOLID_ANGLE_UNIT ( ) );
#84 = LOCAL_TIME ( 13, 57, 4.000000000000000000, #230 ) ;
#85 = PERSON_AND_ORGANIZATION_ROLE ( 'classification_officer' ) ;
#86 = ORIENTED_EDGE ( 'NONE', *, *, #52, .F. ) ;
#87 = EDGE_LOOP ( 'NONE', ( #168 ) ) ;
#88 = ORIENTED_EDGE ( 'NONE', *, *, #65, .T. ) ;
#89 = ADVANCED_FACE ( 'NONE', ( #70, #16 ), #182, .T. ) ;
#90 = AXIS2_PLACEMENT_3D ( 'NONE', #110, #175, #186 ) ;
#91 = DIRECTION ( 'NONE',  ( 3.491481338843133355E-15, -1.224646799147353207E-16, 1.000000000000000000 ) ) ;
#92 = PLANE ( 'NONE',  #165 ) ;
#93 = DIRECTION ( 'NONE',  ( -3.491481338843133355E-15, 1.224646799147353207E-16, -1.000000000000000000 ) ) ;
#94 = FACE_BOUND ( 'NONE', #181, .T. ) ;
#95 = DIRECTION ( 'NONE',  ( 1.000000000000000000, 0.0000000000000000000, 0.0000000000000000000 ) ) ;
#96 = PERSON_AND_ORGANIZATION_ROLE ( 'design_owner' ) ;
#97 = DATE_AND_TIME ( #23, #228 ) ;
#98 = DATE_TIME_ROLE ( 'creation_date' ) ;
#99 = VERTEX_POINT ( 'NONE', #215 ) ;
#100 = APPROVAL ( #5, 'UNSPECIFIED' ) ;
#101 = PERSON_AND_ORGANIZATION ( #234, #210 ) ;
#102 = ORIENTED_EDGE ( 'NONE', *, *, #65, .F. ) ;
#103 = PERSON_AND_ORGANIZATION_ROLE ( 'creator' ) ;
#104 = EDGE_LOOP ( 'NONE', ( #86 ) ) ;
#105 = SHAPE_DEFINITION_REPRESENTATION ( #145, #153 ) ;
#106 = FACE_OUTER_BOUND ( 'NONE', #13, .T. ) ;
#107 = CARTESIAN_POINT ( 'NONE',  ( 2.793185071074506684E-13, -9.797174393178826052E-15, 80.00000000000000000 ) ) ;
#108 = CIRCLE ( 'NONE', #124, 2.530000000000030003 ) ;
#109 = CC_DESIGN_APPROVAL ( #100, ( #198 ) ) ;
#110 = CARTESIAN_POINT ( 'NONE',  ( 4.510291029457192524E-14, -1.581997134281671733E-15, 12.91798692801156712 ) ) ;
#111 = DIRECTION ( 'NONE',  ( -3.491481338843133355E-15, 1.224646799147353207E-16, -1.000000000000000000 ) ) ;
#112 = PRODUCT ( '321732', '321732', '', ( #116 ) ) ;
#113 = DIRECTION ( 'NONE',  ( 4.275831445896958607E-31, 1.000000000000000000, 1.224646799147353207E-16 ) ) ;
#114 = AXIS2_PLACEMENT_3D ( 'NONE', #130, #172, #225 ) ;
#115 = DIRECTION ( 'NONE',  ( -4.275831445896958607E-31, -1.000000000000000000, -1.224646799147352961E-16 ) ) ;
#116 = MECHANICAL_CONTEXT ( 'NONE', #226, 'mechanical' ) ;
#117 = AXIS2_PLACEMENT_3D ( 'NONE', #35, #221, #224 ) ;
#118 = CALENDAR_DATE ( 2021, 2, 12 ) ;
#119 = APPROVAL_DATE_TIME ( #43, #100 ) ;
#120 = ADVANCED_FACE ( 'NONE', ( #156, #94 ), #32, .T. ) ;
#121 = AXIS2_PLACEMENT_3D ( 'NONE', #31, #206, #238 ) ;
#122 = EDGE_LOOP ( 'NONE', ( #199 ) ) ;
#123 = COORDINATED_UNIVERSAL_TIME_OFFSET ( 1, 0, .AHEAD. ) ;
#124 = AXIS2_PLACEMENT_3D ( 'NONE', #220, #188, #54 ) ;
#125 = EDGE_LOOP ( 'NONE', ( #29 ) ) ;
#126 = PERSON_AND_ORGANIZATION ( #234, #210 ) ;
#127 = PLANE ( 'NONE',  #154 ) ;
#128 = CARTESIAN_POINT ( 'NONE',  ( 2.793185071074506684E-13, 1.199807826129472128E-32, 80.00000000000000000 ) ) ;
#129 = UNCERTAINTY_MEASURE_WITH_UNIT (LENGTH_MEASURE( 1.000000000000000082E-05 ), #227, 'distance_accuracy_value', 'NONE');
#130 = CARTESIAN_POINT ( 'NONE',  ( 2.793185071074506684E-13, -9.797174393178826052E-15, 80.00000000000000000 ) ) ;
#131 = EDGE_CURVE ( 'NONE', #163, #163, #108, .T. ) ;
#132 = FACE_OUTER_BOUND ( 'NONE', #9, .T. ) ;
#133 = DIRECTION ( 'NONE',  ( 0.0000000000000000000, 1.000000000000000000, 0.0000000000000000000 ) ) ;
#134 = AXIS2_PLACEMENT_3D ( 'NONE', #151, #91, #115 ) ;
#135 = DIRECTION ( 'NONE',  ( -4.275831445896958607E-31, -1.000000000000000000, -1.224646799147353207E-16 ) ) ;
#136 =( NAMED_UNIT ( * ) PLANE_ANGLE_UNIT ( ) SI_UNIT ( $, .RADIAN. ) );
#137 = CARTESIAN_POINT ( 'NONE',  ( 0.0000000000000000000, 2.130000000000028759, 0.0000000000000000000 ) ) ;
#138 = CALENDAR_DATE ( 2021, 2, 12 ) ;
#139 = DIRECTION ( 'NONE',  ( 0.0000000000000000000, 0.0000000000000000000, 1.000000000000000000 ) ) ;
#140 = ORIENTED_EDGE ( 'NONE', *, *, #69, .F. ) ;
#141 = APPROVAL ( #159, 'UNSPECIFIED' ) ;
#142 = COORDINATED_UNIVERSAL_TIME_OFFSET ( 1, 0, .AHEAD. ) ;
#143 = ORIENTED_EDGE ( 'NONE', *, *, #18, .F. ) ;
#144 = CALENDAR_DATE ( 2021, 2, 12 ) ;
#145 = PRODUCT_DEFINITION_SHAPE ( 'NONE', 'NONE',  #194 ) ;
#146 = DATE_TIME_ROLE ( 'classification_date' ) ;
#147 = FACE_OUTER_BOUND ( 'NONE', #45, .T. ) ;
#148 =( GEOMETRIC_REPRESENTATION_CONTEXT ( 3 ) GLOBAL_UNCERTAINTY_ASSIGNED_CONTEXT ( ( #129 ) ) GLOBAL_UNIT_ASSIGNED_CONTEXT ( ( #227, #136, #83 ) ) REPRESENTATION_CONTEXT ( 'NONE', 'WORKASPACE' ) );
#149 = ADVANCED_FACE ( 'NONE', ( #209, #241 ), #20, .T. ) ;
#150 = FACE_OUTER_BOUND ( 'NONE', #48, .T. ) ;
#151 = CARTESIAN_POINT ( 'NONE',  ( -9.107520979760644148E-31, 3.194488337069799729E-32, -2.608497682183897231E-16 ) ) ;
#152 = CARTESIAN_POINT ( 'NONE',  ( 0.0000000000000000000, 0.0000000000000000000, 0.0000000000000000000 ) ) ;
#153 = ADVANCED_BREP_SHAPE_REPRESENTATION ( '321732', ( #59, #219, #166 ), #148 ) ;
#154 = AXIS2_PLACEMENT_3D ( 'NONE', #128, #204, #205 ) ;
#155 = APPROVAL_PERSON_ORGANIZATION ( #236, #49, #169 ) ;
#156 = FACE_OUTER_BOUND ( 'NONE', #11, .T. ) ;
#157 = DIRECTION ( 'NONE',  ( 4.275831445896959482E-31, 1.000000000000000000, 1.224646799147353207E-16 ) ) ;
#158 = CC_DESIGN_DATE_AND_TIME_ASSIGNMENT ( #12, #146, ( #201 ) ) ;
#159 = APPROVAL_STATUS ( 'not_yet_approved' ) ;
#160 = AXIS2_PLACEMENT_3D ( 'NONE', #189, #93, #239 ) ;
#161 = LOCAL_TIME ( 13, 57, 4.000000000000000000, #60 ) ;
#162 = LOCAL_TIME ( 13, 57, 4.000000000000000000, #142 ) ;
#163 = VERTEX_POINT ( 'NONE', #39 ) ;
#164 = PERSON_AND_ORGANIZATION_ROLE ( 'creator' ) ;
#165 = AXIS2_PLACEMENT_3D ( 'NONE', #196, #216, #135 ) ;
#166 = AXIS2_PLACEMENT_3D ( 'NONE', #22, #139, #95 ) ;
#167 = EDGE_LOOP ( 'NONE', ( #102 ) ) ;
#168 = ORIENTED_EDGE ( 'NONE', *, *, #76, .F. ) ;
#169 = APPROVAL_ROLE ( '' ) ;
#170 = EDGE_CURVE ( 'NONE', #99, #99, #190, .T. ) ;
#171 = CLOSED_SHELL ( 'NONE', ( #15, #229, #208, #120 ) ) ;
#172 = DIRECTION ( 'NONE',  ( -3.491481338843133355E-15, 1.224646799147353207E-16, -1.000000000000000000 ) ) ;
#173 = CARTESIAN_POINT ( 'NONE',  ( 0.0000000000000000000, 0.0000000000000000000, 0.0000000000000000000 ) ) ;
#174 = DIRECTION ( 'NONE',  ( -3.491481338843133355E-15, 1.224646799147353207E-16, -1.000000000000000000 ) ) ;
#175 = DIRECTION ( 'NONE',  ( -3.491481338843133355E-15, 1.224646799147353207E-16, -1.000000000000000000 ) ) ;
#176 = CARTESIAN_POINT ( 'NONE',  ( 4.189777606611760026E-14, -1.469576158976823947E-15, 12.00000000000000000 ) ) ;
#177 = CARTESIAN_POINT ( 'NONE',  ( 2.779219145719134403E-13, 1.999999999999991340, 79.60000000000000853 ) ) ;
#178 = PERSON_AND_ORGANIZATION ( #234, #210 ) ;
#179 = ADVANCED_FACE ( 'NONE', ( #150 ), #191, .F. ) ;
#180 = ADVANCED_FACE ( 'NONE', ( #19, #50 ), #55, .T. ) ;
#181 = EDGE_LOOP ( 'NONE', ( #140 ) ) ;
#182 = CONICAL_SURFACE ( 'NONE', #2, 1.600000000000000977, 0.7853981633974512766 ) ;
#183 = ORIENTED_EDGE ( 'NONE', *, *, #170, .T. ) ;
#184 = ORIENTED_EDGE ( 'NONE', *, *, #131, .T. ) ;
#185 = CC_DESIGN_SECURITY_CLASSIFICATION ( #201, ( #198 ) ) ;
#186 = DIRECTION ( 'NONE',  ( 0.0000000000000000000, 1.000000000000000000, 0.0000000000000000000 ) ) ;
#187 = DIRECTION ( 'NONE',  ( -3.491481338843133355E-15, 1.224646799147353207E-16, -1.000000000000000000 ) ) ;
#188 = DIRECTION ( 'NONE',  ( -3.491481338843133355E-15, 1.224646799147353207E-16, -1.000000000000000000 ) ) ;
#189 = CARTESIAN_POINT ( 'NONE',  ( 1.396592535537251370E-15, -4.898587196589405680E-17, 0.3999999999999994116 ) ) ;
#190 = CIRCLE ( 'NONE', #222, 2.530000000000030003 ) ;
#191 = PLANE ( 'NONE',  #117 ) ;
#192 = CC_DESIGN_PERSON_AND_ORGANIZATION_ASSIGNMENT ( #126, #8, ( #198 ) ) ;
#193 = AXIS2_PLACEMENT_3D ( 'NONE', #223, #174, #38 ) ;
#194 = PRODUCT_DEFINITION ( 'UNKNOWN', '', #198, #61 ) ;
#195 = DATE_AND_TIME ( #118, #84 ) ;
#196 = CARTESIAN_POINT ( 'NONE',  ( 4.189777606611760026E-14, 1.897196125067270291E-32, 12.00000000000000000 ) ) ;
#197 = AXIS2_PLACEMENT_3D ( 'NONE', #152, #74, #157 ) ;
#198 = PRODUCT_DEFINITION_FORMATION_WITH_SPECIFIED_SOURCE ( 'ANY', '', #112, .NOT_KNOWN. ) ;
#199 = ORIENTED_EDGE ( 'NONE', *, *, #76, .T. ) ;
#200 = CLOSED_SHELL ( 'NONE', ( #179, #149, #180, #89, #218 ) ) ;
#201 = SECURITY_CLASSIFICATION ( '', '', #233 ) ;
#202 = APPROVAL_DATE_TIME ( #26, #49 ) ;
#203 = EDGE_LOOP ( 'NONE', ( #64 ) ) ;
#204 = DIRECTION ( 'NONE',  ( -3.491481338843133355E-15, 1.224646799147353207E-16, -1.000000000000000000 ) ) ;
#205 = DIRECTION ( 'NONE',  ( 4.275831445896958607E-31, 1.000000000000000000, 1.224646799147353207E-16 ) ) ;
#206 = DIRECTION ( 'NONE',  ( -3.491481338843133355E-15, 1.224646799147353207E-16, -1.000000000000000000 ) ) ;
#207 = DIRECTION ( 'NONE',  ( 4.275831445896958607E-31, 1.000000000000000000, 1.224646799147353207E-16 ) ) ;
#208 = ADVANCED_FACE ( 'NONE', ( #132 ), #36, .T. ) ;
#209 = FACE_BOUND ( 'NONE', #28, .T. ) ;
#210 = ORGANIZATION ( 'UNSPECIFIED', 'UNSPECIFIED', '' ) ;
#211 = CARTESIAN_POINT ( 'NONE',  ( 1.396592535537252553E-15, 2.530000000000030447, 0.3999999999999997446 ) ) ;
#212 = APPLICATION_PROTOCOL_DEFINITION ( 'international standard', 'config_control_design', 1994, #226 ) ;
#213 = CC_DESIGN_PERSON_AND_ORGANIZATION_ASSIGNMENT ( #80, #164, ( #194 ) ) ;
#214 = VERTEX_POINT ( 'NONE', #177 ) ;
#215 = CARTESIAN_POINT ( 'NONE',  ( 4.189777606611760026E-14, 2.530000000000028670, 12.00000000000000000 ) ) ;
#216 = DIRECTION ( 'NONE',  ( 3.491481338843133355E-15, -1.224646799147353207E-16, 1.000000000000000000 ) ) ;
#217 = ORIENTED_EDGE ( 'NONE', *, *, #69, .T. ) ;
#218 = ADVANCED_FACE ( 'NONE', ( #75 ), #127, .F. ) ;
#219 = MANIFOLD_SOLID_BREP ( 'Corps-Déplacer/Copier1[2]', #171 ) ;
#220 = CARTESIAN_POINT ( 'NONE',  ( 4.189777606611760026E-14, -1.469576158976823947E-15, 12.00000000000000000 ) ) ;
#221 = DIRECTION ( 'NONE',  ( 3.491481338843133355E-15, -1.224646799147353207E-16, 1.000000000000000000 ) ) ;
#222 = AXIS2_PLACEMENT_3D ( 'NONE', #176, #187, #71 ) ;
#223 = CARTESIAN_POINT ( 'NONE',  ( 4.189777606611760026E-14, -1.469576158976823947E-15, 12.00000000000000000 ) ) ;
#224 = DIRECTION ( 'NONE',  ( -4.275831445896958607E-31, -1.000000000000000000, -1.224646799147353207E-16 ) ) ;
#225 = DIRECTION ( 'NONE',  ( 0.0000000000000000000, 1.000000000000000000, 0.0000000000000000000 ) ) ;
#226 = APPLICATION_CONTEXT ( 'configuration controlled 3d designs of mechanical parts and assemblies' ) ;
#227 =( LENGTH_UNIT ( ) NAMED_UNIT ( * ) SI_UNIT ( .MILLI., .METRE. ) );
#228 = LOCAL_TIME ( 13, 57, 4.000000000000000000, #79 ) ;
#229 = ADVANCED_FACE ( 'NONE', ( #33 ), #92, .T. ) ;
#230 = COORDINATED_UNIVERSAL_TIME_OFFSET ( 1, 0, .AHEAD. ) ;
#231 = APPROVAL_ROLE ( '' ) ;
#232 = CIRCLE ( 'NONE', #160, 2.530000000000030447 ) ;
#233 = SECURITY_CLASSIFICATION_LEVEL ( 'unclassified' ) ;
#234 = PERSON ( 'UNSPECIFIED', 'UNSPECIFIED', 'UNSPECIFIED', ('UNSPECIFIED'), ('UNSPECIFIED'), ('UNSPECIFIED') ) ;
#235 = APPLICATION_CONTEXT ( 'configuration controlled 3d designs of mechanical parts and assemblies' ) ;
#236 = PERSON_AND_ORGANIZATION ( #234, #210 ) ;
#237 = EDGE_LOOP ( 'NONE', ( #47 ) ) ;
#238 = DIRECTION ( 'NONE',  ( 4.275831445896958607E-31, 1.000000000000000000, 1.224646799147352961E-16 ) ) ;
#239 = DIRECTION ( 'NONE',  ( 4.567422793013152232E-31, 1.000000000000000000, 1.285615224291096404E-16 ) ) ;
#240 = DIRECTION ( 'NONE',  ( -3.491481338843133355E-15, 1.224646799147353207E-16, -1.000000000000000000 ) ) ;
#241 = FACE_OUTER_BOUND ( 'NONE', #237, .T. ) ;
#242 = CC_DESIGN_PERSON_AND_ORGANIZATION_ASSIGNMENT ( #57, #96, ( #112 ) ) ;
#243 = DIRECTION ( 'NONE',  ( -3.491481338843133355E-15, 1.224646799147353207E-16, -1.000000000000000000 ) ) ;
ENDSEC;
END-ISO-10303-21;
