ISO-10303-21;
HEADER;
FILE_DESCRIPTION (( 'STEP AP203' ),
    '1' );
FILE_NAME ('321731.step',
    '2021-12-02T12:57:03',
    ( '' ),
    ( '' ),
    'SwSTEP 2.0',
    'SolidWorks 2019',
    '' );
FILE_SCHEMA (( 'CONFIG_CONTROL_DESIGN' ));
ENDSEC;

DATA;
#1 = EDGE_LOOP ( 'NONE', ( #145 ) ) ;
#2 = PRODUCT_DEFINITION ( 'UNKNOWN', '', #72, #231 ) ;
#3 = DIRECTION ( 'NONE',  ( -3.491481338843133355E-15, 1.224646799147353207E-16, -1.000000000000000000 ) ) ;
#4 = FACE_OUTER_BOUND ( 'NONE', #85, .T. ) ;
#5 = DIRECTION ( 'NONE',  ( -3.491481338843133355E-15, 1.224646799147353207E-16, -1.000000000000000000 ) ) ;
#6 = AXIS2_PLACEMENT_3D ( 'NONE', #7, #156, #149 ) ;
#7 = CARTESIAN_POINT ( 'NONE',  ( 2.793185071074506684E-13, 1.199807826129472128E-32, 80.00000000000000000 ) ) ;
#8 = APPROVAL_DATE_TIME ( #187, #29 ) ;
#9 = APPLICATION_PROTOCOL_DEFINITION ( 'international standard', 'config_control_design', 1994, #121 ) ;
#10 = APPLICATION_PROTOCOL_DEFINITION ( 'international standard', 'config_control_design', 1994, #91 ) ;
#11 = AXIS2_PLACEMENT_3D ( 'NONE', #151, #208, #152 ) ;
#12 = PERSON_AND_ORGANIZATION ( #199, #153 ) ;
#13 = EDGE_LOOP ( 'NONE', ( #103 ) ) ;
#14 = APPROVAL_STATUS ( 'not_yet_approved' ) ;
#15 = DIRECTION ( 'NONE',  ( 4.576467194583476344E-31, 1.000000000000000000, 1.288160997012465205E-16 ) ) ;
#16 = CC_DESIGN_PERSON_AND_ORGANIZATION_ASSIGNMENT ( #41, #99, ( #233 ) ) ;
#17 = LOCAL_TIME ( 13, 57, 3.000000000000000000, #40 ) ;
#18 = CYLINDRICAL_SURFACE ( 'NONE', #109, 1.999999999999996669 ) ;
#19 = DIRECTION ( 'NONE',  ( 4.275831445896958607E-31, 1.000000000000000000, 1.224646799147353207E-16 ) ) ;
#20 = DIRECTION ( 'NONE',  ( 4.275831445896957731E-31, 1.000000000000000000, 1.224646799147353207E-16 ) ) ;
#21 = DIRECTION ( 'NONE',  ( 3.491481338843133355E-15, -1.224646799147353207E-16, 1.000000000000000000 ) ) ;
#22 = CALENDAR_DATE ( 2021, 2, 12 ) ;
#23 = APPROVAL_STATUS ( 'not_yet_approved' ) ;
#24 = VERTEX_POINT ( 'NONE', #216 ) ;
#25 = CC_DESIGN_SECURITY_CLASSIFICATION ( #66, ( #72 ) ) ;
#26 = CARTESIAN_POINT ( 'NONE',  ( 4.189777606611760026E-14, 2.525000000000028777, 12.00000000000000000 ) ) ;
#27 = ORIENTED_EDGE ( 'NONE', *, *, #223, .T. ) ;
#28 = CC_DESIGN_PERSON_AND_ORGANIZATION_ASSIGNMENT ( #30, #160, ( #72 ) ) ;
#29 = APPROVAL ( #23, 'UNSPECIFIED' ) ;
#30 = PERSON_AND_ORGANIZATION ( #199, #153 ) ;
#31 = ORIENTED_EDGE ( 'NONE', *, *, #162, .F. ) ;
#32 = LOCAL_TIME ( 13, 57, 3.000000000000000000, #217 ) ;
#33 = EDGE_LOOP ( 'NONE', ( #60 ) ) ;
#34 = PLANE ( 'NONE',  #62 ) ;
#35 = DIRECTION ( 'NONE',  ( 4.275831445896958607E-31, 1.000000000000000000, 1.224646799147353207E-16 ) ) ;
#36 = DIRECTION ( 'NONE',  ( 0.0000000000000000000, 1.000000000000000000, 0.0000000000000000000 ) ) ;
#37 = DIRECTION ( 'NONE',  ( 0.0000000000000000000, 1.000000000000000000, 0.0000000000000000000 ) ) ;
#38 = PLANE ( 'NONE',  #61 ) ;
#39 = AXIS2_PLACEMENT_3D ( 'NONE', #204, #3, #68 ) ;
#40 = COORDINATED_UNIVERSAL_TIME_OFFSET ( 1, 0, .AHEAD. ) ;
#41 = PERSON_AND_ORGANIZATION ( #199, #153 ) ;
#42 = VERTEX_POINT ( 'NONE', #192 ) ;
#43 = COORDINATED_UNIVERSAL_TIME_OFFSET ( 1, 0, .AHEAD. ) ;
#44 = APPROVAL_PERSON_ORGANIZATION ( #214, #29, #115 ) ;
#45 = MECHANICAL_CONTEXT ( 'NONE', #91, 'mechanical' ) ;
#46 = ADVANCED_FACE ( 'NONE', ( #161, #196 ), #78, .T. ) ;
#47 = ADVANCED_FACE ( 'NONE', ( #226, #89 ), #52, .T. ) ;
#48 = EDGE_LOOP ( 'NONE', ( #83 ) ) ;
#49 = LOCAL_TIME ( 13, 57, 3.000000000000000000, #209 ) ;
#50 = PLANE ( 'NONE',  #225 ) ;
#51 = CARTESIAN_POINT ( 'NONE',  ( -9.086141822531159434E-31, 3.186989538156490386E-32, -2.602374448188160848E-16 ) ) ;
#52 = CYLINDRICAL_SURFACE ( 'NONE', #159, 2.525000000000030109 ) ;
#53 = CARTESIAN_POINT ( 'NONE',  ( -9.086141822531159434E-31, 3.186989538156490386E-32, -2.602374448188160848E-16 ) ) ;
#54 = DIRECTION ( 'NONE',  ( -3.491481338843133355E-15, 1.224646799147353207E-16, -1.000000000000000000 ) ) ;
#55 = CARTESIAN_POINT ( 'NONE',  ( 2.779219145719134403E-13, 1.999999999999991340, 79.60000000000000853 ) ) ;
#56 = CARTESIAN_POINT ( 'NONE',  ( 2.779219145719134403E-13, -9.748188521212932624E-15, 79.60000000000000853 ) ) ;
#57 = PERSON_AND_ORGANIZATION ( #199, #153 ) ;
#58 = AXIS2_PLACEMENT_3D ( 'NONE', #51, #90, #181 ) ;
#59 = EDGE_LOOP ( 'NONE', ( #27 ) ) ;
#60 = ORIENTED_EDGE ( 'NONE', *, *, #81, .T. ) ;
#61 = AXIS2_PLACEMENT_3D ( 'NONE', #224, #111, #112 ) ;
#62 = AXIS2_PLACEMENT_3D ( 'NONE', #107, #21, #222 ) ;
#63 = ORIENTED_EDGE ( 'NONE', *, *, #162, .T. ) ;
#64 = ORIENTED_EDGE ( 'NONE', *, *, #71, .T. ) ;
#65 = AXIS2_PLACEMENT_3D ( 'NONE', #205, #110, #15 ) ;
#66 = SECURITY_CLASSIFICATION ( '', '', #126 ) ;
#67 = DIRECTION ( 'NONE',  ( 0.0000000000000000000, 1.000000000000000000, 0.0000000000000000000 ) ) ;
#68 = DIRECTION ( 'NONE',  ( 0.0000000000000000000, 1.000000000000000000, 0.0000000000000000000 ) ) ;
#69 = CARTESIAN_POINT ( 'NONE',  ( 4.189777606611760026E-14, -1.469576158976823947E-15, 12.00000000000000000 ) ) ;
#70 = ADVANCED_FACE ( 'NONE', ( #203 ), #38, .F. ) ;
#71 = EDGE_CURVE ( 'NONE', #24, #24, #128, .T. ) ;
#72 = PRODUCT_DEFINITION_FORMATION_WITH_SPECIFIED_SOURCE ( 'ANY', '', #233, .NOT_KNOWN. ) ;
#73 = CARTESIAN_POINT ( 'NONE',  ( 4.189777606611760026E-14, -1.469576158976823947E-15, 12.00000000000000000 ) ) ;
#74 = FACE_OUTER_BOUND ( 'NONE', #59, .T. ) ;
#75 = EDGE_CURVE ( 'NONE', #42, #42, #210, .T. ) ;
#76 = APPROVAL_ROLE ( '' ) ;
#77 = CARTESIAN_POINT ( 'NONE',  ( 0.0000000000000000000, 2.125000000000028866, 0.0000000000000000000 ) ) ;
#78 = CONICAL_SURFACE ( 'NONE', #200, 2.525000000000030109, 0.5235987755982999259 ) ;
#79 = APPROVAL_STATUS ( 'not_yet_approved' ) ;
#80 = PRODUCT_DEFINITION_SHAPE ( 'NONE', 'NONE',  #2 ) ;
#81 = EDGE_CURVE ( 'NONE', #176, #176, #215, .T. ) ;
#82 = ORIENTED_EDGE ( 'NONE', *, *, #71, .F. ) ;
#83 = ORIENTED_EDGE ( 'NONE', *, *, #223, .F. ) ;
#84 = PERSON_AND_ORGANIZATION ( #199, #153 ) ;
#85 = EDGE_LOOP ( 'NONE', ( #147 ) ) ;
#86 = FACE_OUTER_BOUND ( 'NONE', #218, .T. ) ;
#87 = FACE_OUTER_BOUND ( 'NONE', #127, .T. ) ;
#88 = CC_DESIGN_PERSON_AND_ORGANIZATION_ASSIGNMENT ( #12, #163, ( #66 ) ) ;
#89 = FACE_OUTER_BOUND ( 'NONE', #125, .T. ) ;
#90 = DIRECTION ( 'NONE',  ( 3.491481338843133355E-15, -1.224646799147353207E-16, 1.000000000000000000 ) ) ;
#91 = APPLICATION_CONTEXT ( 'configuration controlled 3d designs of mechanical parts and assemblies' ) ;
#92 = LOCAL_TIME ( 13, 57, 3.000000000000000000, #43 ) ;
#93 = FACE_OUTER_BOUND ( 'NONE', #178, .T. ) ;
#94 = PERSON_AND_ORGANIZATION_ROLE ( 'creator' ) ;
#95 = CIRCLE ( 'NONE', #167, 1.600000000000000977 ) ;
#96 = CARTESIAN_POINT ( 'NONE',  ( 0.0000000000000000000, 0.0000000000000000000, 0.0000000000000000000 ) ) ;
#97 = ADVANCED_FACE ( 'NONE', ( #86 ), #50, .T. ) ;
#98 = DIRECTION ( 'NONE',  ( -3.491481338843133355E-15, 1.224646799147353207E-16, -1.000000000000000000 ) ) ;
#99 = PERSON_AND_ORGANIZATION_ROLE ( 'design_owner' ) ;
#100 = AXIS2_PLACEMENT_3D ( 'NONE', #69, #207, #169 ) ;
#101 = ORIENTED_EDGE ( 'NONE', *, *, #81, .F. ) ;
#102 = DATE_TIME_ROLE ( 'classification_date' ) ;
#103 = ORIENTED_EDGE ( 'NONE', *, *, #75, .F. ) ;
#104 = CIRCLE ( 'NONE', #11, 1.999999999999992228 ) ;
#105 = APPROVAL_DATE_TIME ( #240, #131 ) ;
#106 = ADVANCED_FACE ( 'NONE', ( #4, #74 ), #18, .T. ) ;
#107 = CARTESIAN_POINT ( 'NONE',  ( 4.189777606611760026E-14, 1.893446725610616167E-32, 12.00000000000000000 ) ) ;
#108 = CARTESIAN_POINT ( 'NONE',  ( 0.0000000000000000000, 0.0000000000000000000, 0.0000000000000000000 ) ) ;
#109 = AXIS2_PLACEMENT_3D ( 'NONE', #134, #54, #35 ) ;
#110 = DIRECTION ( 'NONE',  ( -3.491481338843133355E-15, 1.224646799147353207E-16, -1.000000000000000000 ) ) ;
#111 = DIRECTION ( 'NONE',  ( 3.491481338843133355E-15, -1.224646799147353207E-16, 1.000000000000000000 ) ) ;
#112 = DIRECTION ( 'NONE',  ( -4.275831445896958607E-31, -1.000000000000000000, -1.224646799147353207E-16 ) ) ;
#113 = CIRCLE ( 'NONE', #119, 2.000000000000000888 ) ;
#114 = LOCAL_TIME ( 13, 57, 3.000000000000000000, #201 ) ;
#115 = APPROVAL_ROLE ( '' ) ;
#116 = CARTESIAN_POINT ( 'NONE',  ( 2.793185071074506684E-13, 1.599999999999991207, 80.00000000000000000 ) ) ;
#117 = ADVANCED_FACE ( 'NONE', ( #186 ), #34, .T. ) ;
#118 = EDGE_CURVE ( 'NONE', #138, #138, #104, .T. ) ;
#119 = AXIS2_PLACEMENT_3D ( 'NONE', #56, #98, #213 ) ;
#120 = CALENDAR_DATE ( 2021, 2, 12 ) ;
#121 = APPLICATION_CONTEXT ( 'configuration controlled 3d designs of mechanical parts and assemblies' ) ;
#122 = DIRECTION ( 'NONE',  ( 0.0000000000000000000, 0.0000000000000000000, 1.000000000000000000 ) ) ;
#123 = APPROVAL ( #79, 'UNSPECIFIED' ) ;
#124 = AXIS2_PLACEMENT_3D ( 'NONE', #73, #185, #37 ) ;
#125 = EDGE_LOOP ( 'NONE', ( #82 ) ) ;
#126 = SECURITY_CLASSIFICATION_LEVEL ( 'unclassified' ) ;
#127 = EDGE_LOOP ( 'NONE', ( #31 ) ) ;
#128 = CIRCLE ( 'NONE', #65, 2.525000000000030109 ) ;
#129 = DIRECTION ( 'NONE',  ( -3.491481338843133355E-15, 1.224646799147353207E-16, -1.000000000000000000 ) ) ;
#130 = FACE_BOUND ( 'NONE', #164, .T. ) ;
#131 = APPROVAL ( #14, 'UNSPECIFIED' ) ;
#132 = CARTESIAN_POINT ( 'NONE',  ( 4.189777606611760026E-14, -1.469576158976823947E-15, 12.00000000000000000 ) ) ;
#133 = DIRECTION ( 'NONE',  ( -3.491481338843133355E-15, 1.224646799147353207E-16, -1.000000000000000000 ) ) ;
#134 = CARTESIAN_POINT ( 'NONE',  ( 0.0000000000000000000, 0.0000000000000000000, 0.0000000000000000000 ) ) ;
#135 = DATE_AND_TIME ( #227, #49 ) ;
#136 = MANIFOLD_SOLID_BREP ( 'Corps-Déplacer/Copier1[2]', #171 ) ;
#137 =( GEOMETRIC_REPRESENTATION_CONTEXT ( 3 ) GLOBAL_UNCERTAINTY_ASSIGNED_CONTEXT ( ( #211 ) ) GLOBAL_UNIT_ASSIGNED_CONTEXT ( ( #228, #140, #232 ) ) REPRESENTATION_CONTEXT ( 'NONE', 'WORKASPACE' ) );
#138 = VERTEX_POINT ( 'NONE', #175 ) ;
#139 = MANIFOLD_SOLID_BREP ( 'Corps-Déplacer/Copier1[1]', #234 ) ;
#140 =( NAMED_UNIT ( * ) PLANE_ANGLE_UNIT ( ) SI_UNIT ( $, .RADIAN. ) );
#141 = CC_DESIGN_PERSON_AND_ORGANIZATION_ASSIGNMENT ( #84, #236, ( #72 ) ) ;
#142 = DATE_TIME_ROLE ( 'creation_date' ) ;
#143 = CONICAL_SURFACE ( 'NONE', #58, 2.125000000000028866, 0.7853981633974504994 ) ;
#144 = CALENDAR_DATE ( 2021, 2, 12 ) ;
#145 = ORIENTED_EDGE ( 'NONE', *, *, #155, .F. ) ;
#146 = SHAPE_DEFINITION_REPRESENTATION ( #80, #150 ) ;
#147 = ORIENTED_EDGE ( 'NONE', *, *, #118, .F. ) ;
#148 = CONICAL_SURFACE ( 'NONE', #39, 1.600000000000000977, 0.7853981633974512766 ) ;
#149 = DIRECTION ( 'NONE',  ( 4.275831445896958607E-31, 1.000000000000000000, 1.224646799147353207E-16 ) ) ;
#150 = ADVANCED_BREP_SHAPE_REPRESENTATION ( '321731', ( #139, #136, #206 ), #137 ) ;
#151 = CARTESIAN_POINT ( 'NONE',  ( 4.507267317920915020E-14, -1.580936559042946886E-15, 12.90932667397372491 ) ) ;
#152 = DIRECTION ( 'NONE',  ( 0.0000000000000000000, 1.000000000000000000, 0.0000000000000000000 ) ) ;
#153 = ORGANIZATION ( 'UNSPECIFIED', 'UNSPECIFIED', '' ) ;
#154 = DIRECTION ( 'NONE',  ( 4.275831445896958607E-31, 1.000000000000000000, 1.224646799147353207E-16 ) ) ;
#155 = EDGE_CURVE ( 'NONE', #212, #212, #191, .T. ) ;
#156 = DIRECTION ( 'NONE',  ( -3.491481338843133355E-15, 1.224646799147353207E-16, -1.000000000000000000 ) ) ;
#157 = ADVANCED_FACE ( 'NONE', ( #93, #180 ), #143, .T. ) ;
#158 = VERTEX_POINT ( 'NONE', #116 ) ;
#159 = AXIS2_PLACEMENT_3D ( 'NONE', #108, #129, #154 ) ;
#160 = PERSON_AND_ORGANIZATION_ROLE ( 'creator' ) ;
#161 = FACE_BOUND ( 'NONE', #241, .T. ) ;
#162 = EDGE_CURVE ( 'NONE', #158, #158, #95, .T. ) ;
#163 = PERSON_AND_ORGANIZATION_ROLE ( 'classification_officer' ) ;
#164 = EDGE_LOOP ( 'NONE', ( #63 ) ) ;
#165 = EDGE_LOOP ( 'NONE', ( #198 ) ) ;
#166 = CARTESIAN_POINT ( 'NONE',  ( 2.793185071074506684E-13, -9.797174393178826052E-15, 80.00000000000000000 ) ) ;
#167 = AXIS2_PLACEMENT_3D ( 'NONE', #166, #168, #67 ) ;
#168 = DIRECTION ( 'NONE',  ( -3.491481338843133355E-15, 1.224646799147353207E-16, -1.000000000000000000 ) ) ;
#169 = DIRECTION ( 'NONE',  ( 0.0000000000000000000, 1.000000000000000000, 0.0000000000000000000 ) ) ;
#170 = DIRECTION ( 'NONE',  ( -3.491481338843133355E-15, 1.224646799147353207E-16, -1.000000000000000000 ) ) ;
#171 = CLOSED_SHELL ( 'NONE', ( #47, #117, #97, #157 ) ) ;
#172 = AXIS2_PLACEMENT_3D ( 'NONE', #53, #133, #20 ) ;
#173 = PLANE ( 'NONE',  #6 ) ;
#174 = CC_DESIGN_DATE_AND_TIME_ASSIGNMENT ( #237, #102, ( #66 ) ) ;
#175 = CARTESIAN_POINT ( 'NONE',  ( 4.507267317920915020E-14, 1.999999999999990452, 12.90932667397372491 ) ) ;
#176 = VERTEX_POINT ( 'NONE', #26 ) ;
#177 = CC_DESIGN_APPROVAL ( #29, ( #72 ) ) ;
#178 = EDGE_LOOP ( 'NONE', ( #64 ) ) ;
#179 = ORIENTED_EDGE ( 'NONE', *, *, #118, .T. ) ;
#180 = FACE_BOUND ( 'NONE', #1, .T. ) ;
#181 = DIRECTION ( 'NONE',  ( -4.275831445896957731E-31, -1.000000000000000000, -1.224646799147353207E-16 ) ) ;
#182 = CARTESIAN_POINT ( 'NONE',  ( -4.543070911265579717E-31, 1.593494769078245193E-32, -1.301187224094080424E-16 ) ) ;
#183 = ADVANCED_FACE ( 'NONE', ( #87 ), #173, .F. ) ;
#184 = CC_DESIGN_PERSON_AND_ORGANIZATION_ASSIGNMENT ( #57, #94, ( #2 ) ) ;
#185 = DIRECTION ( 'NONE',  ( -3.491481338843133355E-15, 1.224646799147353207E-16, -1.000000000000000000 ) ) ;
#186 = FACE_OUTER_BOUND ( 'NONE', #194, .T. ) ;
#187 = DATE_AND_TIME ( #120, #92 ) ;
#188 = ADVANCED_FACE ( 'NONE', ( #221, #130 ), #148, .T. ) ;
#189 = PERSON_AND_ORGANIZATION ( #199, #153 ) ;
#190 = VERTEX_POINT ( 'NONE', #55 ) ;
#191 = CIRCLE ( 'NONE', #172, 2.125000000000028866 ) ;
#192 = CARTESIAN_POINT ( 'NONE',  ( 4.189777606611760026E-14, 2.525000000000028777, 12.00000000000000000 ) ) ;
#193 = DIRECTION ( 'NONE',  ( 1.000000000000000000, 0.0000000000000000000, 0.0000000000000000000 ) ) ;
#194 = EDGE_LOOP ( 'NONE', ( #101 ) ) ;
#195 = PRODUCT_RELATED_PRODUCT_CATEGORY ( 'detail', '', ( #233 ) ) ;
#196 = FACE_OUTER_BOUND ( 'NONE', #13, .T. ) ;
#197 = PERSON_AND_ORGANIZATION ( #199, #153 ) ;
#198 = ORIENTED_EDGE ( 'NONE', *, *, #75, .T. ) ;
#199 = PERSON ( 'UNSPECIFIED', 'UNSPECIFIED', 'UNSPECIFIED', ('UNSPECIFIED'), ('UNSPECIFIED'), ('UNSPECIFIED') ) ;
#200 = AXIS2_PLACEMENT_3D ( 'NONE', #132, #170, #36 ) ;
#201 = COORDINATED_UNIVERSAL_TIME_OFFSET ( 1, 0, .AHEAD. ) ;
#202 = CC_DESIGN_APPROVAL ( #123, ( #2 ) ) ;
#203 = FACE_OUTER_BOUND ( 'NONE', #165, .T. ) ;
#204 = CARTESIAN_POINT ( 'NONE',  ( 2.793185071074506684E-13, -9.797174393178826052E-15, 80.00000000000000000 ) ) ;
#205 = CARTESIAN_POINT ( 'NONE',  ( 1.396592535537251370E-15, -4.898587196589405680E-17, 0.3999999999999994116 ) ) ;
#206 = AXIS2_PLACEMENT_3D ( 'NONE', #96, #122, #193 ) ;
#207 = DIRECTION ( 'NONE',  ( -3.491481338843133355E-15, 1.224646799147353207E-16, -1.000000000000000000 ) ) ;
#208 = DIRECTION ( 'NONE',  ( -3.491481338843133355E-15, 1.224646799147353207E-16, -1.000000000000000000 ) ) ;
#209 = COORDINATED_UNIVERSAL_TIME_OFFSET ( 1, 0, .AHEAD. ) ;
#210 = CIRCLE ( 'NONE', #100, 2.525000000000030109 ) ;
#211 = UNCERTAINTY_MEASURE_WITH_UNIT (LENGTH_MEASURE( 1.000000000000000082E-05 ), #228, 'distance_accuracy_value', 'NONE');
#212 = VERTEX_POINT ( 'NONE', #77 ) ;
#213 = DIRECTION ( 'NONE',  ( 0.0000000000000000000, 1.000000000000000000, 0.0000000000000000000 ) ) ;
#214 = PERSON_AND_ORGANIZATION ( #199, #153 ) ;
#215 = CIRCLE ( 'NONE', #124, 2.525000000000030109 ) ;
#216 = CARTESIAN_POINT ( 'NONE',  ( 1.396592535537252553E-15, 2.525000000000030109, 0.3999999999999997446 ) ) ;
#217 = COORDINATED_UNIVERSAL_TIME_OFFSET ( 1, 0, .AHEAD. ) ;
#218 = EDGE_LOOP ( 'NONE', ( #238 ) ) ;
#219 = APPROVAL_ROLE ( '' ) ;
#220 = APPROVAL_PERSON_ORGANIZATION ( #189, #123, #76 ) ;
#221 = FACE_OUTER_BOUND ( 'NONE', #48, .T. ) ;
#222 = DIRECTION ( 'NONE',  ( -4.275831445896958607E-31, -1.000000000000000000, -1.224646799147353207E-16 ) ) ;
#223 = EDGE_CURVE ( 'NONE', #190, #190, #113, .T. ) ;
#224 = CARTESIAN_POINT ( 'NONE',  ( 4.189777606611760026E-14, 1.893446725610616167E-32, 12.00000000000000000 ) ) ;
#225 = AXIS2_PLACEMENT_3D ( 'NONE', #182, #5, #19 ) ;
#226 = FACE_OUTER_BOUND ( 'NONE', #33, .T. ) ;
#227 = CALENDAR_DATE ( 2021, 2, 12 ) ;
#228 =( LENGTH_UNIT ( ) NAMED_UNIT ( * ) SI_UNIT ( .MILLI., .METRE. ) );
#229 = APPROVAL_DATE_TIME ( #135, #123 ) ;
#230 = DATE_AND_TIME ( #22, #17 ) ;
#231 = DESIGN_CONTEXT ( 'detailed design', #121, 'design' ) ;
#232 =( NAMED_UNIT ( * ) SI_UNIT ( $, .STERADIAN. ) SOLID_ANGLE_UNIT ( ) );
#233 = PRODUCT ( '321731', '321731', '', ( #45 ) ) ;
#234 = CLOSED_SHELL ( 'NONE', ( #70, #46, #106, #188, #183 ) ) ;
#235 = CC_DESIGN_APPROVAL ( #131, ( #66 ) ) ;
#236 = PERSON_AND_ORGANIZATION_ROLE ( 'design_supplier' ) ;
#237 = DATE_AND_TIME ( #144, #114 ) ;
#238 = ORIENTED_EDGE ( 'NONE', *, *, #155, .T. ) ;
#239 = APPROVAL_PERSON_ORGANIZATION ( #197, #131, #219 ) ;
#240 = DATE_AND_TIME ( #242, #32 ) ;
#241 = EDGE_LOOP ( 'NONE', ( #179 ) ) ;
#242 = CALENDAR_DATE ( 2021, 2, 12 ) ;
#243 = CC_DESIGN_DATE_AND_TIME_ASSIGNMENT ( #230, #142, ( #2 ) ) ;
ENDSEC;
END-ISO-10303-21;
