ISO-10303-21;
HEADER;
FILE_DESCRIPTION (( 'STEP AP203' ),
    '1' );
FILE_NAME ('321730.step',
    '2021-12-02T12:57:02',
    ( '' ),
    ( '' ),
    'SwSTEP 2.0',
    'SolidWorks 2019',
    '' );
FILE_SCHEMA (( 'CONFIG_CONTROL_DESIGN' ));
ENDSEC;

DATA;
#1 = CALENDAR_DATE ( 2021, 2, 12 ) ;
#2 = CIRCLE ( 'NONE', #108, 2.520000000000030216 ) ;
#3 = DATE_AND_TIME ( #41, #126 ) ;
#4 = ORIENTED_EDGE ( 'NONE', *, *, #32, .F. ) ;
#5 = CALENDAR_DATE ( 2021, 2, 12 ) ;
#6 = EDGE_LOOP ( 'NONE', ( #158 ) ) ;
#7 = ORIENTED_EDGE ( 'NONE', *, *, #157, .T. ) ;
#8 = FACE_BOUND ( 'NONE', #54, .T. ) ;
#9 = DESIGN_CONTEXT ( 'detailed design', #118, 'design' ) ;
#10 = DIRECTION ( 'NONE',  ( 0.0000000000000000000, 1.000000000000000000, 0.0000000000000000000 ) ) ;
#11 = PERSON ( 'UNSPECIFIED', 'UNSPECIFIED', 'UNSPECIFIED', ('UNSPECIFIED'), ('UNSPECIFIED'), ('UNSPECIFIED') ) ;
#12 = LOCAL_TIME ( 13, 57, 2.000000000000000000, #174 ) ;
#13 = DIRECTION ( 'NONE',  ( -3.491481338843133355E-15, 1.224646799147353207E-16, -1.000000000000000000 ) ) ;
#14 = ADVANCED_FACE ( 'NONE', ( #156, #8 ), #79, .T. ) ;
#15 = FACE_OUTER_BOUND ( 'NONE', #177, .T. ) ;
#16 = PRODUCT ( '321730', '321730', '', ( #242 ) ) ;
#17 = ADVANCED_BREP_SHAPE_REPRESENTATION ( '321730', ( #213, #52, #167 ), #66 ) ;
#18 = DIRECTION ( 'NONE',  ( 3.491481338843133355E-15, -1.224646799147353207E-16, 1.000000000000000000 ) ) ;
#19 = DIRECTION ( 'NONE',  ( 4.275831445896958607E-31, 1.000000000000000000, 1.224646799147353207E-16 ) ) ;
#20 = LOCAL_TIME ( 13, 57, 2.000000000000000000, #169 ) ;
#21 =( LENGTH_UNIT ( ) NAMED_UNIT ( * ) SI_UNIT ( .MILLI., .METRE. ) );
#22 = CARTESIAN_POINT ( 'NONE',  ( 2.779219145719134403E-13, 1.999999999999991340, 79.60000000000000853 ) ) ;
#23 = DIRECTION ( 'NONE',  ( 0.0000000000000000000, 1.000000000000000000, 0.0000000000000000000 ) ) ;
#24 = CONICAL_SURFACE ( 'NONE', #76, 1.600000000000000977, 0.7853981633974512766 ) ;
#25 = APPROVAL_DATE_TIME ( #145, #192 ) ;
#26 = PERSON_AND_ORGANIZATION ( #11, #84 ) ;
#27 = ORIENTED_EDGE ( 'NONE', *, *, #67, .T. ) ;
#28 = APPROVAL ( #166, 'UNSPECIFIED' ) ;
#29 = APPROVAL_ROLE ( '' ) ;
#30 = DIRECTION ( 'NONE',  ( 3.491481338843133355E-15, -1.224646799147353207E-16, 1.000000000000000000 ) ) ;
#31 = CARTESIAN_POINT ( 'NONE',  ( 4.189777606611760026E-14, 1.889697326153961222E-32, 12.00000000000000000 ) ) ;
#32 = EDGE_CURVE ( 'NONE', #70, #70, #101, .T. ) ;
#33 = CC_DESIGN_DATE_AND_TIME_ASSIGNMENT ( #3, #208, ( #233 ) ) ;
#34 = CLOSED_SHELL ( 'NONE', ( #175, #109, #147, #14 ) ) ;
#35 = DIRECTION ( 'NONE',  ( -3.491481338843133355E-15, 1.224646799147353207E-16, -1.000000000000000000 ) ) ;
#36 = CARTESIAN_POINT ( 'NONE',  ( 4.189777606611760026E-14, 1.889697326153961222E-32, 12.00000000000000000 ) ) ;
#37 = DIRECTION ( 'NONE',  ( -3.491481338843133355E-15, 1.224646799147353207E-16, -1.000000000000000000 ) ) ;
#38 = VERTEX_POINT ( 'NONE', #22 ) ;
#39 = CIRCLE ( 'NONE', #220, 2.520000000000030216 ) ;
#40 = COORDINATED_UNIVERSAL_TIME_OFFSET ( 1, 0, .AHEAD. ) ;
#41 = CALENDAR_DATE ( 2021, 2, 12 ) ;
#42 = SHAPE_DEFINITION_REPRESENTATION ( #115, #17 ) ;
#43 = CC_DESIGN_PERSON_AND_ORGANIZATION_ASSIGNMENT ( #152, #232, ( #210 ) ) ;
#44 = CARTESIAN_POINT ( 'NONE',  ( 4.504243606384637516E-14, -1.579875983804222039E-15, 12.90066641993587915 ) ) ;
#45 = DIRECTION ( 'NONE',  ( 0.0000000000000000000, 1.000000000000000000, 0.0000000000000000000 ) ) ;
#46 = DIRECTION ( 'NONE',  ( -4.275831445896958607E-31, -1.000000000000000000, -1.224646799147353207E-16 ) ) ;
#47 = DIRECTION ( 'NONE',  ( 4.585547486636221123E-31, 1.000000000000000000, 1.290716872006537496E-16 ) ) ;
#48 = FACE_OUTER_BOUND ( 'NONE', #6, .T. ) ;
#49 = CARTESIAN_POINT ( 'NONE',  ( 4.189777606611760026E-14, 2.520000000000028884, 12.00000000000000000 ) ) ;
#50 = CC_DESIGN_PERSON_AND_ORGANIZATION_ASSIGNMENT ( #127, #225, ( #94 ) ) ;
#51 = DIRECTION ( 'NONE',  ( 0.0000000000000000000, 0.0000000000000000000, 1.000000000000000000 ) ) ;
#52 = MANIFOLD_SOLID_BREP ( 'Corps-Déplacer/Copier1[2]', #34 ) ;
#53 = SECURITY_CLASSIFICATION_LEVEL ( 'unclassified' ) ;
#54 = EDGE_LOOP ( 'NONE', ( #4 ) ) ;
#55 = EDGE_LOOP ( 'NONE', ( #189 ) ) ;
#56 = AXIS2_PLACEMENT_3D ( 'NONE', #102, #214, #238 ) ;
#57 = CC_DESIGN_APPROVAL ( #122, ( #233 ) ) ;
#58 = PLANE ( 'NONE',  #231 ) ;
#59 = FACE_OUTER_BOUND ( 'NONE', #112, .T. ) ;
#60 = CARTESIAN_POINT ( 'NONE',  ( 2.793185071074506684E-13, 1.199807826129472128E-32, 80.00000000000000000 ) ) ;
#61 = AXIS2_PLACEMENT_3D ( 'NONE', #86, #164, #10 ) ;
#62 = CARTESIAN_POINT ( 'NONE',  ( -4.532381332650837360E-31, 1.589745369621590522E-32, -1.298125607096211986E-16 ) ) ;
#63 = DIRECTION ( 'NONE',  ( -3.491481338843133355E-15, 1.224646799147353207E-16, -1.000000000000000000 ) ) ;
#64 =( NAMED_UNIT ( * ) PLANE_ANGLE_UNIT ( ) SI_UNIT ( $, .RADIAN. ) );
#65 = CARTESIAN_POINT ( 'NONE',  ( 4.189777606611760026E-14, 2.520000000000028884, 12.00000000000000000 ) ) ;
#66 =( GEOMETRIC_REPRESENTATION_CONTEXT ( 3 ) GLOBAL_UNCERTAINTY_ASSIGNED_CONTEXT ( ( #236 ) ) GLOBAL_UNIT_ASSIGNED_CONTEXT ( ( #21, #64, #150 ) ) REPRESENTATION_CONTEXT ( 'NONE', 'WORKASPACE' ) );
#67 = EDGE_CURVE ( 'NONE', #90, #90, #186, .T. ) ;
#68 = DATE_AND_TIME ( #125, #71 ) ;
#69 = DATE_TIME_ROLE ( 'creation_date' ) ;
#70 = VERTEX_POINT ( 'NONE', #89 ) ;
#71 = LOCAL_TIME ( 13, 57, 2.000000000000000000, #106 ) ;
#72 = EDGE_LOOP ( 'NONE', ( #229 ) ) ;
#73 = EDGE_LOOP ( 'NONE', ( #173 ) ) ;
#74 = CC_DESIGN_PERSON_AND_ORGANIZATION_ASSIGNMENT ( #172, #227, ( #233 ) ) ;
#75 = EDGE_LOOP ( 'NONE', ( #27 ) ) ;
#76 = AXIS2_PLACEMENT_3D ( 'NONE', #123, #83, #234 ) ;
#77 = ORIENTED_EDGE ( 'NONE', *, *, #185, .F. ) ;
#78 = CARTESIAN_POINT ( 'NONE',  ( -9.064762665301674719E-31, 3.179490739243181043E-32, -2.596251214192423973E-16 ) ) ;
#79 = CONICAL_SURFACE ( 'NONE', #194, 2.120000000000028528, 0.7853981633974504994 ) ;
#80 = DIRECTION ( 'NONE',  ( 0.0000000000000000000, 1.000000000000000000, 0.0000000000000000000 ) ) ;
#81 = APPLICATION_CONTEXT ( 'configuration controlled 3d designs of mechanical parts and assemblies' ) ;
#82 = DIRECTION ( 'NONE',  ( 4.275831445896958607E-31, 1.000000000000000000, 1.224646799147353207E-16 ) ) ;
#83 = DIRECTION ( 'NONE',  ( -3.491481338843133355E-15, 1.224646799147353207E-16, -1.000000000000000000 ) ) ;
#84 = ORGANIZATION ( 'UNSPECIFIED', 'UNSPECIFIED', '' ) ;
#85 = AXIS2_PLACEMENT_3D ( 'NONE', #60, #63, #159 ) ;
#86 = CARTESIAN_POINT ( 'NONE',  ( 2.793185071074506684E-13, -9.797174393178826052E-15, 80.00000000000000000 ) ) ;
#87 = VERTEX_POINT ( 'NONE', #184 ) ;
#88 = DIRECTION ( 'NONE',  ( 1.000000000000000000, 0.0000000000000000000, 0.0000000000000000000 ) ) ;
#89 = CARTESIAN_POINT ( 'NONE',  ( 0.0000000000000000000, 2.120000000000028528, 0.0000000000000000000 ) ) ;
#90 = VERTEX_POINT ( 'NONE', #221 ) ;
#91 = APPROVAL_ROLE ( '' ) ;
#92 = CC_DESIGN_APPROVAL ( #28, ( #210 ) ) ;
#93 = ORIENTED_EDGE ( 'NONE', *, *, #157, .F. ) ;
#94 = PRODUCT_DEFINITION ( 'UNKNOWN', '', #210, #9 ) ;
#95 = CC_DESIGN_DATE_AND_TIME_ASSIGNMENT ( #68, #69, ( #94 ) ) ;
#96 = APPROVAL_STATUS ( 'not_yet_approved' ) ;
#97 = ORIENTED_EDGE ( 'NONE', *, *, #185, .T. ) ;
#98 = ORIENTED_EDGE ( 'NONE', *, *, #230, .T. ) ;
#99 = FACE_OUTER_BOUND ( 'NONE', #153, .T. ) ;
#100 = DIRECTION ( 'NONE',  ( -3.491481338843133355E-15, 1.224646799147353207E-16, -1.000000000000000000 ) ) ;
#101 = CIRCLE ( 'NONE', #56, 2.120000000000028528 ) ;
#102 = CARTESIAN_POINT ( 'NONE',  ( -9.064762665301674719E-31, 3.179490739243181043E-32, -2.596251214192423973E-16 ) ) ;
#103 = ADVANCED_FACE ( 'NONE', ( #161 ), #237, .F. ) ;
#104 = CYLINDRICAL_SURFACE ( 'NONE', #163, 2.520000000000030216 ) ;
#105 = APPROVAL_PERSON_ORGANIZATION ( #204, #28, #240 ) ;
#106 = COORDINATED_UNIVERSAL_TIME_OFFSET ( 1, 0, .AHEAD. ) ;
#107 = CALENDAR_DATE ( 2021, 2, 12 ) ;
#108 = AXIS2_PLACEMENT_3D ( 'NONE', #205, #201, #23 ) ;
#109 = ADVANCED_FACE ( 'NONE', ( #48 ), #218, .T. ) ;
#110 = PERSON_AND_ORGANIZATION_ROLE ( 'design_owner' ) ;
#111 = APPROVAL_PERSON_ORGANIZATION ( #207, #122, #29 ) ;
#112 = EDGE_LOOP ( 'NONE', ( #154 ) ) ;
#113 = PERSON_AND_ORGANIZATION_ROLE ( 'creator' ) ;
#114 = ORIENTED_EDGE ( 'NONE', *, *, #32, .T. ) ;
#115 = PRODUCT_DEFINITION_SHAPE ( 'NONE', 'NONE',  #94 ) ;
#116 = APPROVAL_PERSON_ORGANIZATION ( #26, #192, #91 ) ;
#117 = DIRECTION ( 'NONE',  ( -3.491481338843133355E-15, 1.224646799147353207E-16, -1.000000000000000000 ) ) ;
#118 = APPLICATION_CONTEXT ( 'configuration controlled 3d designs of mechanical parts and assemblies' ) ;
#119 = CARTESIAN_POINT ( 'NONE',  ( 0.0000000000000000000, 0.0000000000000000000, 0.0000000000000000000 ) ) ;
#120 = ADVANCED_FACE ( 'NONE', ( #15, #217 ), #24, .T. ) ;
#121 = CONICAL_SURFACE ( 'NONE', #215, 2.520000000000030216, 0.5235987755983001479 ) ;
#122 = APPROVAL ( #96, 'UNSPECIFIED' ) ;
#123 = CARTESIAN_POINT ( 'NONE',  ( 2.793185071074506684E-13, -9.797174393178826052E-15, 80.00000000000000000 ) ) ;
#124 = CARTESIAN_POINT ( 'NONE',  ( 1.396592535537251370E-15, -4.898587196589405680E-17, 0.3999999999999994116 ) ) ;
#125 = CALENDAR_DATE ( 2021, 2, 12 ) ;
#126 = LOCAL_TIME ( 13, 57, 2.000000000000000000, #132 ) ;
#127 = PERSON_AND_ORGANIZATION ( #11, #84 ) ;
#128 = PERSON_AND_ORGANIZATION ( #11, #84 ) ;
#129 = ADVANCED_FACE ( 'NONE', ( #180 ), #199, .F. ) ;
#130 = AXIS2_PLACEMENT_3D ( 'NONE', #140, #100, #141 ) ;
#131 = APPROVAL_DATE_TIME ( #190, #122 ) ;
#132 = COORDINATED_UNIVERSAL_TIME_OFFSET ( 1, 0, .AHEAD. ) ;
#133 = EDGE_LOOP ( 'NONE', ( #98 ) ) ;
#134 = PERSON_AND_ORGANIZATION ( #11, #84 ) ;
#135 = ORIENTED_EDGE ( 'NONE', *, *, #216, .F. ) ;
#136 = AXIS2_PLACEMENT_3D ( 'NONE', #36, #181, #200 ) ;
#137 = FACE_BOUND ( 'NONE', #73, .T. ) ;
#138 = CARTESIAN_POINT ( 'NONE',  ( 0.0000000000000000000, 0.0000000000000000000, 0.0000000000000000000 ) ) ;
#139 = CC_DESIGN_PERSON_AND_ORGANIZATION_ASSIGNMENT ( #128, #110, ( #16 ) ) ;
#140 = CARTESIAN_POINT ( 'NONE',  ( 2.779219145719134403E-13, -9.748188521212932624E-15, 79.60000000000000853 ) ) ;
#141 = DIRECTION ( 'NONE',  ( 0.0000000000000000000, 1.000000000000000000, 0.0000000000000000000 ) ) ;
#142 = DIRECTION ( 'NONE',  ( -4.275831445896958607E-31, -1.000000000000000000, -1.224646799147353207E-16 ) ) ;
#143 = VERTEX_POINT ( 'NONE', #219 ) ;
#144 = AXIS2_PLACEMENT_3D ( 'NONE', #124, #117, #47 ) ;
#145 = DATE_AND_TIME ( #1, #20 ) ;
#146 = DATE_AND_TIME ( #107, #170 ) ;
#147 = ADVANCED_FACE ( 'NONE', ( #162 ), #58, .T. ) ;
#148 = VERTEX_POINT ( 'NONE', #65 ) ;
#149 = CC_DESIGN_APPROVAL ( #192, ( #94 ) ) ;
#150 =( NAMED_UNIT ( * ) SI_UNIT ( $, .STERADIAN. ) SOLID_ANGLE_UNIT ( ) );
#151 = ADVANCED_FACE ( 'NONE', ( #137, #99 ), #121, .T. ) ;
#152 = PERSON_AND_ORGANIZATION ( #11, #84 ) ;
#153 = EDGE_LOOP ( 'NONE', ( #135 ) ) ;
#154 = ORIENTED_EDGE ( 'NONE', *, *, #209, .F. ) ;
#155 = AXIS2_PLACEMENT_3D ( 'NONE', #44, #239, #211 ) ;
#156 = FACE_OUTER_BOUND ( 'NONE', #75, .T. ) ;
#157 = EDGE_CURVE ( 'NONE', #38, #38, #176, .T. ) ;
#158 = ORIENTED_EDGE ( 'NONE', *, *, #230, .F. ) ;
#159 = DIRECTION ( 'NONE',  ( 4.275831445896958607E-31, 1.000000000000000000, 1.224646799147353207E-16 ) ) ;
#160 = FACE_OUTER_BOUND ( 'NONE', #226, .T. ) ;
#161 = FACE_OUTER_BOUND ( 'NONE', #171, .T. ) ;
#162 = FACE_OUTER_BOUND ( 'NONE', #191, .T. ) ;
#163 = AXIS2_PLACEMENT_3D ( 'NONE', #119, #182, #19 ) ;
#164 = DIRECTION ( 'NONE',  ( -3.491481338843133355E-15, 1.224646799147353207E-16, -1.000000000000000000 ) ) ;
#165 = VERTEX_POINT ( 'NONE', #49 ) ;
#166 = APPROVAL_STATUS ( 'not_yet_approved' ) ;
#167 = AXIS2_PLACEMENT_3D ( 'NONE', #222, #51, #88 ) ;
#168 = CC_DESIGN_PERSON_AND_ORGANIZATION_ASSIGNMENT ( #134, #113, ( #210 ) ) ;
#169 = COORDINATED_UNIVERSAL_TIME_OFFSET ( 1, 0, .AHEAD. ) ;
#170 = LOCAL_TIME ( 13, 57, 2.000000000000000000, #40 ) ;
#171 = EDGE_LOOP ( 'NONE', ( #77 ) ) ;
#172 = PERSON_AND_ORGANIZATION ( #11, #84 ) ;
#173 = ORIENTED_EDGE ( 'NONE', *, *, #209, .T. ) ;
#174 = COORDINATED_UNIVERSAL_TIME_OFFSET ( 1, 0, .AHEAD. ) ;
#175 = ADVANCED_FACE ( 'NONE', ( #196, #197 ), #104, .T. ) ;
#176 = CIRCLE ( 'NONE', #130, 2.000000000000000888 ) ;
#177 = EDGE_LOOP ( 'NONE', ( #93 ) ) ;
#178 = CARTESIAN_POINT ( 'NONE',  ( 4.189777606611760026E-14, -1.469576158976823947E-15, 12.00000000000000000 ) ) ;
#179 = CARTESIAN_POINT ( 'NONE',  ( 4.189777606611760026E-14, -1.469576158976823947E-15, 12.00000000000000000 ) ) ;
#180 = FACE_OUTER_BOUND ( 'NONE', #72, .T. ) ;
#181 = DIRECTION ( 'NONE',  ( 3.491481338843133355E-15, -1.224646799147353207E-16, 1.000000000000000000 ) ) ;
#182 = DIRECTION ( 'NONE',  ( -3.491481338843133355E-15, 1.224646799147353207E-16, -1.000000000000000000 ) ) ;
#183 = CLOSED_SHELL ( 'NONE', ( #129, #151, #228, #120, #103 ) ) ;
#184 = CARTESIAN_POINT ( 'NONE',  ( 2.793185071074506684E-13, 1.599999999999991207, 80.00000000000000000 ) ) ;
#185 = EDGE_CURVE ( 'NONE', #87, #87, #224, .T. ) ;
#186 = CIRCLE ( 'NONE', #144, 2.520000000000030216 ) ;
#187 = APPLICATION_PROTOCOL_DEFINITION ( 'international standard', 'config_control_design', 1994, #81 ) ;
#188 = APPLICATION_PROTOCOL_DEFINITION ( 'international standard', 'config_control_design', 1994, #118 ) ;
#189 = ORIENTED_EDGE ( 'NONE', *, *, #67, .F. ) ;
#190 = DATE_AND_TIME ( #5, #12 ) ;
#191 = EDGE_LOOP ( 'NONE', ( #114 ) ) ;
#192 = APPROVAL ( #241, 'UNSPECIFIED' ) ;
#193 = EDGE_LOOP ( 'NONE', ( #97 ) ) ;
#194 = AXIS2_PLACEMENT_3D ( 'NONE', #78, #18, #142 ) ;
#195 = DIRECTION ( 'NONE',  ( -3.491481338843133355E-15, 1.224646799147353207E-16, -1.000000000000000000 ) ) ;
#196 = FACE_OUTER_BOUND ( 'NONE', #133, .T. ) ;
#197 = FACE_OUTER_BOUND ( 'NONE', #55, .T. ) ;
#198 = AXIS2_PLACEMENT_3D ( 'NONE', #31, #30, #46 ) ;
#199 = PLANE ( 'NONE',  #136 ) ;
#200 = DIRECTION ( 'NONE',  ( -4.275831445896958607E-31, -1.000000000000000000, -1.224646799147353207E-16 ) ) ;
#201 = DIRECTION ( 'NONE',  ( -3.491481338843133355E-15, 1.224646799147353207E-16, -1.000000000000000000 ) ) ;
#202 = CIRCLE ( 'NONE', #155, 1.999999999999992228 ) ;
#203 = CC_DESIGN_SECURITY_CLASSIFICATION ( #233, ( #210 ) ) ;
#204 = PERSON_AND_ORGANIZATION ( #11, #84 ) ;
#205 = CARTESIAN_POINT ( 'NONE',  ( 4.189777606611760026E-14, -1.469576158976823947E-15, 12.00000000000000000 ) ) ;
#206 = APPROVAL_DATE_TIME ( #146, #28 ) ;
#207 = PERSON_AND_ORGANIZATION ( #11, #84 ) ;
#208 = DATE_TIME_ROLE ( 'classification_date' ) ;
#209 = EDGE_CURVE ( 'NONE', #143, #143, #202, .T. ) ;
#210 = PRODUCT_DEFINITION_FORMATION_WITH_SPECIFIED_SOURCE ( 'ANY', '', #16, .NOT_KNOWN. ) ;
#211 = DIRECTION ( 'NONE',  ( 0.0000000000000000000, 1.000000000000000000, 0.0000000000000000000 ) ) ;
#212 = DIRECTION ( 'NONE',  ( 4.275831445896958607E-31, 1.000000000000000000, 1.224646799147353207E-16 ) ) ;
#213 = MANIFOLD_SOLID_BREP ( 'Corps-Déplacer/Copier1[1]', #183 ) ;
#214 = DIRECTION ( 'NONE',  ( -3.491481338843133355E-15, 1.224646799147353207E-16, -1.000000000000000000 ) ) ;
#215 = AXIS2_PLACEMENT_3D ( 'NONE', #178, #37, #45 ) ;
#216 = EDGE_CURVE ( 'NONE', #165, #165, #39, .T. ) ;
#217 = FACE_BOUND ( 'NONE', #193, .T. ) ;
#218 = PLANE ( 'NONE',  #198 ) ;
#219 = CARTESIAN_POINT ( 'NONE',  ( 4.504243606384637516E-14, 1.999999999999990452, 12.90066641993587915 ) ) ;
#220 = AXIS2_PLACEMENT_3D ( 'NONE', #179, #13, #80 ) ;
#221 = CARTESIAN_POINT ( 'NONE',  ( 1.396592535537252553E-15, 2.520000000000030216, 0.3999999999999997446 ) ) ;
#222 = CARTESIAN_POINT ( 'NONE',  ( 0.0000000000000000000, 0.0000000000000000000, 0.0000000000000000000 ) ) ;
#223 = AXIS2_PLACEMENT_3D ( 'NONE', #138, #35, #212 ) ;
#224 = CIRCLE ( 'NONE', #61, 1.600000000000000977 ) ;
#225 = PERSON_AND_ORGANIZATION_ROLE ( 'creator' ) ;
#226 = EDGE_LOOP ( 'NONE', ( #7 ) ) ;
#227 = PERSON_AND_ORGANIZATION_ROLE ( 'classification_officer' ) ;
#228 = ADVANCED_FACE ( 'NONE', ( #59, #160 ), #235, .T. ) ;
#229 = ORIENTED_EDGE ( 'NONE', *, *, #216, .T. ) ;
#230 = EDGE_CURVE ( 'NONE', #148, #148, #2, .T. ) ;
#231 = AXIS2_PLACEMENT_3D ( 'NONE', #62, #195, #82 ) ;
#232 = PERSON_AND_ORGANIZATION_ROLE ( 'design_supplier' ) ;
#233 = SECURITY_CLASSIFICATION ( '', '', #53 ) ;
#234 = DIRECTION ( 'NONE',  ( 0.0000000000000000000, 1.000000000000000000, 0.0000000000000000000 ) ) ;
#235 = CYLINDRICAL_SURFACE ( 'NONE', #223, 1.999999999999996669 ) ;
#236 = UNCERTAINTY_MEASURE_WITH_UNIT (LENGTH_MEASURE( 1.000000000000000082E-05 ), #21, 'distance_accuracy_value', 'NONE');
#237 = PLANE ( 'NONE',  #85 ) ;
#238 = DIRECTION ( 'NONE',  ( 4.275831445896958607E-31, 1.000000000000000000, 1.224646799147353207E-16 ) ) ;
#239 = DIRECTION ( 'NONE',  ( -3.491481338843133355E-15, 1.224646799147353207E-16, -1.000000000000000000 ) ) ;
#240 = APPROVAL_ROLE ( '' ) ;
#241 = APPROVAL_STATUS ( 'not_yet_approved' ) ;
#242 = MECHANICAL_CONTEXT ( 'NONE', #81, 'mechanical' ) ;
#243 = PRODUCT_RELATED_PRODUCT_CATEGORY ( 'detail', '', ( #16 ) ) ;
ENDSEC;
END-ISO-10303-21;
