ISO-10303-21;
HEADER;
FILE_DESCRIPTION (( 'STEP AP203' ),
    '1' );
FILE_NAME ('321729.step',
    '2021-12-02T12:57:02',
    ( '' ),
    ( '' ),
    'SwSTEP 2.0',
    'SolidWorks 2019',
    '' );
FILE_SCHEMA (( 'CONFIG_CONTROL_DESIGN' ));
ENDSEC;

DATA;
#1 = FACE_BOUND ( 'NONE', #181, .T. ) ;
#2 = CALENDAR_DATE ( 2021, 2, 12 ) ;
#3 = DATE_AND_TIME ( #226, #90 ) ;
#4 = PRODUCT_DEFINITION ( 'UNKNOWN', '', #18, #153 ) ;
#5 = MECHANICAL_CONTEXT ( 'NONE', #119, 'mechanical' ) ;
#6 = COORDINATED_UNIVERSAL_TIME_OFFSET ( 1, 0, .AHEAD. ) ;
#7 = APPROVAL_PERSON_ORGANIZATION ( #64, #41, #204 ) ;
#8 = UNCERTAINTY_MEASURE_WITH_UNIT (LENGTH_MEASURE( 1.000000000000000082E-05 ), #40, 'distance_accuracy_value', 'NONE');
#9 = APPLICATION_CONTEXT ( 'configuration controlled 3d designs of mechanical parts and assemblies' ) ;
#10 = LOCAL_TIME ( 13, 57, 2.000000000000000000, #60 ) ;
#11 = ORIENTED_EDGE ( 'NONE', *, *, #103, .T. ) ;
#12 = PRODUCT_RELATED_PRODUCT_CATEGORY ( 'detail', '', ( #113 ) ) ;
#13 = CC_DESIGN_PERSON_AND_ORGANIZATION_ASSIGNMENT ( #65, #84, ( #4 ) ) ;
#14 = CARTESIAN_POINT ( 'NONE',  ( 4.189777606611760026E-14, 1.885947926697306277E-32, 12.00000000000000000 ) ) ;
#15 = ORIENTED_EDGE ( 'NONE', *, *, #156, .F. ) ;
#16 = CARTESIAN_POINT ( 'NONE',  ( 4.501219894848360011E-14, -1.578815408565496994E-15, 12.89200616589803339 ) ) ;
#17 = ORIENTED_EDGE ( 'NONE', *, *, #190, .F. ) ;
#18 = PRODUCT_DEFINITION_FORMATION_WITH_SPECIFIED_SOURCE ( 'ANY', '', #113, .NOT_KNOWN. ) ;
#19 = ORIENTED_EDGE ( 'NONE', *, *, #180, .F. ) ;
#20 = DIRECTION ( 'NONE',  ( 4.275831445896958607E-31, 1.000000000000000000, 1.224646799147353207E-16 ) ) ;
#21 = CIRCLE ( 'NONE', #145, 1.999999999999992228 ) ;
#22 = DIRECTION ( 'NONE',  ( -3.491481338843133355E-15, 1.224646799147353207E-16, -1.000000000000000000 ) ) ;
#23 = APPROVAL_STATUS ( 'not_yet_approved' ) ;
#24 = APPROVAL_ROLE ( '' ) ;
#25 = APPROVAL_ROLE ( '' ) ;
#26 = CIRCLE ( 'NONE', #88, 2.515000000000029878 ) ;
#27 = CC_DESIGN_SECURITY_CLASSIFICATION ( #120, ( #18 ) ) ;
#28 = LOCAL_TIME ( 13, 57, 2.000000000000000000, #201 ) ;
#29 = AXIS2_PLACEMENT_3D ( 'NONE', #82, #213, #46 ) ;
#30 = EDGE_LOOP ( 'NONE', ( #161 ) ) ;
#31 = CARTESIAN_POINT ( 'NONE',  ( 4.189777606611760026E-14, 2.515000000000028546, 12.00000000000000000 ) ) ;
#32 = ORIENTED_EDGE ( 'NONE', *, *, #103, .F. ) ;
#33 = VERTEX_POINT ( 'NONE', #31 ) ;
#34 = DIRECTION ( 'NONE',  ( -3.491481338843133355E-15, 1.224646799147353207E-16, -1.000000000000000000 ) ) ;
#35 = DIRECTION ( 'NONE',  ( -3.491481338843133355E-15, 1.224646799147353207E-16, -1.000000000000000000 ) ) ;
#36 = AXIS2_PLACEMENT_3D ( 'NONE', #209, #92, #20 ) ;
#37 =( NAMED_UNIT ( * ) PLANE_ANGLE_UNIT ( ) SI_UNIT ( $, .RADIAN. ) );
#38 = FACE_OUTER_BOUND ( 'NONE', #108, .T. ) ;
#39 = DIRECTION ( 'NONE',  ( -4.275831445896958607E-31, -1.000000000000000000, -1.224646799147353207E-16 ) ) ;
#40 =( LENGTH_UNIT ( ) NAMED_UNIT ( * ) SI_UNIT ( .MILLI., .METRE. ) );
#41 = APPROVAL ( #23, 'UNSPECIFIED' ) ;
#42 = PERSON_AND_ORGANIZATION_ROLE ( 'design_supplier' ) ;
#43 = CC_DESIGN_APPROVAL ( #129, ( #4 ) ) ;
#44 = DATE_AND_TIME ( #150, #28 ) ;
#45 = EDGE_CURVE ( 'NONE', #212, #212, #87, .T. ) ;
#46 = DIRECTION ( 'NONE',  ( 4.275831445896958607E-31, 1.000000000000000000, 1.224646799147353207E-16 ) ) ;
#47 = AXIS2_PLACEMENT_3D ( 'NONE', #135, #118, #191 ) ;
#48 = EDGE_CURVE ( 'NONE', #235, #235, #71, .T. ) ;
#49 = PLANE ( 'NONE',  #232 ) ;
#50 = AXIS2_PLACEMENT_3D ( 'NONE', #198, #125, #39 ) ;
#51 = CARTESIAN_POINT ( 'NONE',  ( 0.0000000000000000000, 2.115000000000028191, 0.0000000000000000000 ) ) ;
#52 = DIRECTION ( 'NONE',  ( -3.491481338843133355E-15, 1.224646799147353207E-16, -1.000000000000000000 ) ) ;
#53 = CARTESIAN_POINT ( 'NONE',  ( 2.793185071074506684E-13, 1.599999999999991207, 80.00000000000000000 ) ) ;
#54 = ADVANCED_BREP_SHAPE_REPRESENTATION ( '321729', ( #61, #215, #63 ), #205 ) ;
#55 = DIRECTION ( 'NONE',  ( 1.000000000000000000, 0.0000000000000000000, 0.0000000000000000000 ) ) ;
#56 = ORIENTED_EDGE ( 'NONE', *, *, #48, .T. ) ;
#57 = DIRECTION ( 'NONE',  ( -3.491481338843133355E-15, 1.224646799147353207E-16, -1.000000000000000000 ) ) ;
#58 = CC_DESIGN_DATE_AND_TIME_ASSIGNMENT ( #44, #202, ( #120 ) ) ;
#59 = ADVANCED_FACE ( 'NONE', ( #179, #1 ), #116, .T. ) ;
#60 = COORDINATED_UNIVERSAL_TIME_OFFSET ( 1, 0, .AHEAD. ) ;
#61 = MANIFOLD_SOLID_BREP ( 'Corps-Déplacer/Copier1[1]', #210 ) ;
#62 = PERSON_AND_ORGANIZATION ( #207, #138 ) ;
#63 = AXIS2_PLACEMENT_3D ( 'NONE', #148, #144, #55 ) ;
#64 = PERSON_AND_ORGANIZATION ( #207, #138 ) ;
#65 = PERSON_AND_ORGANIZATION ( #207, #138 ) ;
#66 = FACE_OUTER_BOUND ( 'NONE', #159, .T. ) ;
#67 = PLANE ( 'NONE',  #29 ) ;
#68 = CIRCLE ( 'NONE', #98, 2.000000000000000888 ) ;
#69 = ADVANCED_FACE ( 'NONE', ( #228 ), #178, .F. ) ;
#70 = EDGE_LOOP ( 'NONE', ( #56 ) ) ;
#71 = CIRCLE ( 'NONE', #152, 2.515000000000029878 ) ;
#72 = VERTEX_POINT ( 'NONE', #53 ) ;
#73 = EDGE_LOOP ( 'NONE', ( #214 ) ) ;
#74 = CARTESIAN_POINT ( 'NONE',  ( 4.189777606611760026E-14, -1.469576158976823947E-15, 12.00000000000000000 ) ) ;
#75 = ORIENTED_EDGE ( 'NONE', *, *, #45, .T. ) ;
#76 = DIRECTION ( 'NONE',  ( 0.0000000000000000000, 1.000000000000000000, 0.0000000000000000000 ) ) ;
#77 = ORIENTED_EDGE ( 'NONE', *, *, #190, .T. ) ;
#78 = CC_DESIGN_PERSON_AND_ORGANIZATION_ASSIGNMENT ( #85, #81, ( #18 ) ) ;
#79 = CARTESIAN_POINT ( 'NONE',  ( 1.396592535537254131E-15, 2.515000000000029878, 0.4000000000000001887 ) ) ;
#80 = COORDINATED_UNIVERSAL_TIME_OFFSET ( 1, 0, .AHEAD. ) ;
#81 = PERSON_AND_ORGANIZATION_ROLE ( 'creator' ) ;
#82 = CARTESIAN_POINT ( 'NONE',  ( -4.521691754036094127E-31, 1.585995970164935850E-32, -1.295063990098343302E-16 ) ) ;
#83 = SHAPE_DEFINITION_REPRESENTATION ( #97, #54 ) ;
#84 = PERSON_AND_ORGANIZATION_ROLE ( 'creator' ) ;
#85 = PERSON_AND_ORGANIZATION ( #207, #138 ) ;
#86 = ADVANCED_FACE ( 'NONE', ( #229 ), #49, .T. ) ;
#87 = CIRCLE ( 'NONE', #218, 2.115000000000028191 ) ;
#88 = AXIS2_PLACEMENT_3D ( 'NONE', #147, #200, #109 ) ;
#89 = FACE_OUTER_BOUND ( 'NONE', #73, .T. ) ;
#90 = LOCAL_TIME ( 13, 57, 2.000000000000000000, #149 ) ;
#91 = APPROVAL_PERSON_ORGANIZATION ( #115, #93, #25 ) ;
#92 = DIRECTION ( 'NONE',  ( -3.491481338843133355E-15, 1.224646799147353207E-16, -1.000000000000000000 ) ) ;
#93 = APPROVAL ( #114, 'UNSPECIFIED' ) ;
#94 = EDGE_LOOP ( 'NONE', ( #77 ) ) ;
#95 = DIRECTION ( 'NONE',  ( -3.491481338843133355E-15, 1.224646799147353207E-16, -1.000000000000000000 ) ) ;
#96 = CARTESIAN_POINT ( 'NONE',  ( 2.793185071074506684E-13, -9.797174393178826052E-15, 80.00000000000000000 ) ) ;
#97 = PRODUCT_DEFINITION_SHAPE ( 'NONE', 'NONE',  #4 ) ;
#98 = AXIS2_PLACEMENT_3D ( 'NONE', #238, #240, #112 ) ;
#99 = APPLICATION_PROTOCOL_DEFINITION ( 'international standard', 'config_control_design', 1994, #119 ) ;
#100 = APPROVAL_PERSON_ORGANIZATION ( #224, #129, #24 ) ;
#101 = DATE_TIME_ROLE ( 'creation_date' ) ;
#102 = ADVANCED_FACE ( 'NONE', ( #38 ), #67, .T. ) ;
#103 = EDGE_CURVE ( 'NONE', #33, #33, #222, .T. ) ;
#104 = DATE_AND_TIME ( #2, #223 ) ;
#105 = AXIS2_PLACEMENT_3D ( 'NONE', #192, #34, #155 ) ;
#106 = DIRECTION ( 'NONE',  ( 4.594663883229931950E-31, 1.000000000000000000, 1.293282909525437355E-16 ) ) ;
#107 = PLANE ( 'NONE',  #50 ) ;
#108 = EDGE_LOOP ( 'NONE', ( #75 ) ) ;
#109 = DIRECTION ( 'NONE',  ( 0.0000000000000000000, 1.000000000000000000, 0.0000000000000000000 ) ) ;
#110 = CLOSED_SHELL ( 'NONE', ( #111, #86, #102, #59 ) ) ;
#111 = ADVANCED_FACE ( 'NONE', ( #165, #242 ), #220, .T. ) ;
#112 = DIRECTION ( 'NONE',  ( 0.0000000000000000000, 1.000000000000000000, 0.0000000000000000000 ) ) ;
#113 = PRODUCT ( '321729', '321729', '', ( #5 ) ) ;
#114 = APPROVAL_STATUS ( 'not_yet_approved' ) ;
#115 = PERSON_AND_ORGANIZATION ( #207, #138 ) ;
#116 = CONICAL_SURFACE ( 'NONE', #47, 2.115000000000028191, 0.7853981633974500554 ) ;
#117 = ADVANCED_FACE ( 'NONE', ( #66, #136 ), #203, .T. ) ;
#118 = DIRECTION ( 'NONE',  ( 3.491481338843133355E-15, -1.224646799147353207E-16, 1.000000000000000000 ) ) ;
#119 = APPLICATION_CONTEXT ( 'configuration controlled 3d designs of mechanical parts and assemblies' ) ;
#120 = SECURITY_CLASSIFICATION ( '', '', #225 ) ;
#121 = CARTESIAN_POINT ( 'NONE',  ( 4.189777606611760026E-14, 2.515000000000028546, 12.00000000000000000 ) ) ;
#122 = ORIENTED_EDGE ( 'NONE', *, *, #48, .F. ) ;
#123 = DIRECTION ( 'NONE',  ( 4.275831445896958607E-31, 1.000000000000000000, 1.224646799147353207E-16 ) ) ;
#124 = AXIS2_PLACEMENT_3D ( 'NONE', #74, #182, #127 ) ;
#125 = DIRECTION ( 'NONE',  ( 3.491481338843133355E-15, -1.224646799147353207E-16, 1.000000000000000000 ) ) ;
#126 = ORIENTED_EDGE ( 'NONE', *, *, #236, .T. ) ;
#127 = DIRECTION ( 'NONE',  ( 0.0000000000000000000, 1.000000000000000000, 0.0000000000000000000 ) ) ;
#128 = APPLICATION_PROTOCOL_DEFINITION ( 'international standard', 'config_control_design', 1994, #9 ) ;
#129 = APPROVAL ( #176, 'UNSPECIFIED' ) ;
#130 = AXIS2_PLACEMENT_3D ( 'NONE', #154, #22, #170 ) ;
#131 = CALENDAR_DATE ( 2021, 2, 12 ) ;
#132 = PERSON_AND_ORGANIZATION_ROLE ( 'design_owner' ) ;
#133 = ADVANCED_FACE ( 'NONE', ( #194, #196 ), #172, .T. ) ;
#134 = APPROVAL_DATE_TIME ( #3, #93 ) ;
#135 = CARTESIAN_POINT ( 'NONE',  ( -9.043383508072188254E-31, 3.171991940329871701E-32, -2.590127980196686604E-16 ) ) ;
#136 = FACE_OUTER_BOUND ( 'NONE', #30, .T. ) ;
#137 = CC_DESIGN_PERSON_AND_ORGANIZATION_ASSIGNMENT ( #177, #174, ( #120 ) ) ;
#138 = ORGANIZATION ( 'UNSPECIFIED', 'UNSPECIFIED', '' ) ;
#139 = ORIENTED_EDGE ( 'NONE', *, *, #236, .F. ) ;
#140 = CARTESIAN_POINT ( 'NONE',  ( 2.793185071074506684E-13, -9.797174393178826052E-15, 80.00000000000000000 ) ) ;
#141 = EDGE_LOOP ( 'NONE', ( #19 ) ) ;
#142 = CARTESIAN_POINT ( 'NONE',  ( 2.779219145719134403E-13, 1.999999999999991340, 79.60000000000000853 ) ) ;
#143 = EDGE_LOOP ( 'NONE', ( #122 ) ) ;
#144 = DIRECTION ( 'NONE',  ( 0.0000000000000000000, 0.0000000000000000000, 1.000000000000000000 ) ) ;
#145 = AXIS2_PLACEMENT_3D ( 'NONE', #16, #57, #76 ) ;
#146 = DIRECTION ( 'NONE',  ( 3.491481338843133355E-15, -1.224646799147353207E-16, 1.000000000000000000 ) ) ;
#147 = CARTESIAN_POINT ( 'NONE',  ( 4.189777606611760026E-14, -1.469576158976823947E-15, 12.00000000000000000 ) ) ;
#148 = CARTESIAN_POINT ( 'NONE',  ( 0.0000000000000000000, 0.0000000000000000000, 0.0000000000000000000 ) ) ;
#149 = COORDINATED_UNIVERSAL_TIME_OFFSET ( 1, 0, .AHEAD. ) ;
#150 = CALENDAR_DATE ( 2021, 2, 12 ) ;
#151 = APPROVAL_DATE_TIME ( #171, #41 ) ;
#152 = AXIS2_PLACEMENT_3D ( 'NONE', #197, #35, #106 ) ;
#153 = DESIGN_CONTEXT ( 'detailed design', #9, 'design' ) ;
#154 = CARTESIAN_POINT ( 'NONE',  ( 4.189777606611760026E-14, -1.469576158976823947E-15, 12.00000000000000000 ) ) ;
#155 = DIRECTION ( 'NONE',  ( 4.275831445896958607E-31, 1.000000000000000000, 1.224646799147353207E-16 ) ) ;
#156 = EDGE_CURVE ( 'NONE', #199, #199, #68, .T. ) ;
#157 = EDGE_LOOP ( 'NONE', ( #11 ) ) ;
#158 = DIRECTION ( 'NONE',  ( -3.491481338843133355E-15, 1.224646799147353207E-16, -1.000000000000000000 ) ) ;
#159 = EDGE_LOOP ( 'NONE', ( #17 ) ) ;
#160 = FACE_BOUND ( 'NONE', #184, .T. ) ;
#161 = ORIENTED_EDGE ( 'NONE', *, *, #156, .T. ) ;
#162 = DIRECTION ( 'NONE',  ( -3.491481338843133355E-15, 1.224646799147353207E-16, -1.000000000000000000 ) ) ;
#163 = EDGE_LOOP ( 'NONE', ( #15 ) ) ;
#164 = DIRECTION ( 'NONE',  ( 0.0000000000000000000, 1.000000000000000000, 0.0000000000000000000 ) ) ;
#165 = FACE_OUTER_BOUND ( 'NONE', #157, .T. ) ;
#166 = AXIS2_PLACEMENT_3D ( 'NONE', #175, #95, #208 ) ;
#167 = CC_DESIGN_PERSON_AND_ORGANIZATION_ASSIGNMENT ( #62, #42, ( #18 ) ) ;
#168 = CARTESIAN_POINT ( 'NONE',  ( 4.501219894848360011E-14, 1.999999999999990452, 12.89200616589803339 ) ) ;
#169 = DATE_AND_TIME ( #187, #10 ) ;
#170 = DIRECTION ( 'NONE',  ( 0.0000000000000000000, 1.000000000000000000, 0.0000000000000000000 ) ) ;
#171 = DATE_AND_TIME ( #131, #189 ) ;
#172 = CONICAL_SURFACE ( 'NONE', #124, 2.515000000000029878, 0.5235987755983002589 ) ;
#173 = AXIS2_PLACEMENT_3D ( 'NONE', #140, #162, #164 ) ;
#174 = PERSON_AND_ORGANIZATION_ROLE ( 'classification_officer' ) ;
#175 = CARTESIAN_POINT ( 'NONE',  ( 0.0000000000000000000, 0.0000000000000000000, 0.0000000000000000000 ) ) ;
#176 = APPROVAL_STATUS ( 'not_yet_approved' ) ;
#177 = PERSON_AND_ORGANIZATION ( #207, #138 ) ;
#178 = PLANE ( 'NONE',  #105 ) ;
#179 = FACE_OUTER_BOUND ( 'NONE', #70, .T. ) ;
#180 = EDGE_CURVE ( 'NONE', #221, #221, #26, .T. ) ;
#181 = EDGE_LOOP ( 'NONE', ( #239 ) ) ;
#182 = DIRECTION ( 'NONE',  ( -3.491481338843133355E-15, 1.224646799147353207E-16, -1.000000000000000000 ) ) ;
#183 =( NAMED_UNIT ( * ) SI_UNIT ( $, .STERADIAN. ) SOLID_ANGLE_UNIT ( ) );
#184 = EDGE_LOOP ( 'NONE', ( #126 ) ) ;
#185 = FACE_OUTER_BOUND ( 'NONE', #163, .T. ) ;
#186 = CC_DESIGN_DATE_AND_TIME_ASSIGNMENT ( #104, #101, ( #4 ) ) ;
#187 = CALENDAR_DATE ( 2021, 2, 12 ) ;
#188 = PERSON_AND_ORGANIZATION ( #207, #138 ) ;
#189 = LOCAL_TIME ( 13, 57, 2.000000000000000000, #6 ) ;
#190 = EDGE_CURVE ( 'NONE', #216, #216, #21, .T. ) ;
#191 = DIRECTION ( 'NONE',  ( -4.275831445896958607E-31, -1.000000000000000000, -1.224646799147353207E-16 ) ) ;
#192 = CARTESIAN_POINT ( 'NONE',  ( 2.793185071074506684E-13, 1.199807826129472128E-32, 80.00000000000000000 ) ) ;
#193 = CC_DESIGN_APPROVAL ( #41, ( #18 ) ) ;
#194 = FACE_BOUND ( 'NONE', #94, .T. ) ;
#195 = EDGE_LOOP ( 'NONE', ( #32 ) ) ;
#196 = FACE_OUTER_BOUND ( 'NONE', #141, .T. ) ;
#197 = CARTESIAN_POINT ( 'NONE',  ( 1.396592535537252948E-15, -4.898587196589411226E-17, 0.3999999999999998557 ) ) ;
#198 = CARTESIAN_POINT ( 'NONE',  ( 4.189777606611760026E-14, 1.885947926697306277E-32, 12.00000000000000000 ) ) ;
#199 = VERTEX_POINT ( 'NONE', #142 ) ;
#200 = DIRECTION ( 'NONE',  ( -3.491481338843133355E-15, 1.224646799147353207E-16, -1.000000000000000000 ) ) ;
#201 = COORDINATED_UNIVERSAL_TIME_OFFSET ( 1, 0, .AHEAD. ) ;
#202 = DATE_TIME_ROLE ( 'classification_date' ) ;
#203 = CYLINDRICAL_SURFACE ( 'NONE', #36, 1.999999999999996669 ) ;
#204 = APPROVAL_ROLE ( '' ) ;
#205 =( GEOMETRIC_REPRESENTATION_CONTEXT ( 3 ) GLOBAL_UNCERTAINTY_ASSIGNED_CONTEXT ( ( #8 ) ) GLOBAL_UNIT_ASSIGNED_CONTEXT ( ( #40, #37, #183 ) ) REPRESENTATION_CONTEXT ( 'NONE', 'WORKASPACE' ) );
#206 = ADVANCED_FACE ( 'NONE', ( #89 ), #107, .F. ) ;
#207 = PERSON ( 'UNSPECIFIED', 'UNSPECIFIED', 'UNSPECIFIED', ('UNSPECIFIED'), ('UNSPECIFIED'), ('UNSPECIFIED') ) ;
#208 = DIRECTION ( 'NONE',  ( 4.275831445896958607E-31, 1.000000000000000000, 1.224646799147353207E-16 ) ) ;
#209 = CARTESIAN_POINT ( 'NONE',  ( 0.0000000000000000000, 0.0000000000000000000, 0.0000000000000000000 ) ) ;
#210 = CLOSED_SHELL ( 'NONE', ( #206, #133, #117, #217, #69 ) ) ;
#211 = AXIS2_PLACEMENT_3D ( 'NONE', #96, #158, #231 ) ;
#212 = VERTEX_POINT ( 'NONE', #51 ) ;
#213 = DIRECTION ( 'NONE',  ( -3.491481338843133355E-15, 1.224646799147353207E-16, -1.000000000000000000 ) ) ;
#214 = ORIENTED_EDGE ( 'NONE', *, *, #180, .T. ) ;
#215 = MANIFOLD_SOLID_BREP ( 'Corps-Déplacer/Copier1[2]', #110 ) ;
#216 = VERTEX_POINT ( 'NONE', #168 ) ;
#217 = ADVANCED_FACE ( 'NONE', ( #185, #160 ), #241, .T. ) ;
#218 = AXIS2_PLACEMENT_3D ( 'NONE', #219, #52, #123 ) ;
#219 = CARTESIAN_POINT ( 'NONE',  ( -9.043383508072188254E-31, 3.171991940329871701E-32, -2.590127980196686604E-16 ) ) ;
#220 = CYLINDRICAL_SURFACE ( 'NONE', #166, 2.515000000000029878 ) ;
#221 = VERTEX_POINT ( 'NONE', #121 ) ;
#222 = CIRCLE ( 'NONE', #130, 2.515000000000029878 ) ;
#223 = LOCAL_TIME ( 13, 57, 2.000000000000000000, #80 ) ;
#224 = PERSON_AND_ORGANIZATION ( #207, #138 ) ;
#225 = SECURITY_CLASSIFICATION_LEVEL ( 'unclassified' ) ;
#226 = CALENDAR_DATE ( 2021, 2, 12 ) ;
#227 = CC_DESIGN_APPROVAL ( #93, ( #120 ) ) ;
#228 = FACE_OUTER_BOUND ( 'NONE', #234, .T. ) ;
#229 = FACE_OUTER_BOUND ( 'NONE', #195, .T. ) ;
#230 = CC_DESIGN_PERSON_AND_ORGANIZATION_ASSIGNMENT ( #188, #132, ( #113 ) ) ;
#231 = DIRECTION ( 'NONE',  ( 0.0000000000000000000, 1.000000000000000000, 0.0000000000000000000 ) ) ;
#232 = AXIS2_PLACEMENT_3D ( 'NONE', #14, #146, #237 ) ;
#233 = CIRCLE ( 'NONE', #173, 1.600000000000000977 ) ;
#234 = EDGE_LOOP ( 'NONE', ( #139 ) ) ;
#235 = VERTEX_POINT ( 'NONE', #79 ) ;
#236 = EDGE_CURVE ( 'NONE', #72, #72, #233, .T. ) ;
#237 = DIRECTION ( 'NONE',  ( -4.275831445896958607E-31, -1.000000000000000000, -1.224646799147353207E-16 ) ) ;
#238 = CARTESIAN_POINT ( 'NONE',  ( 2.779219145719134403E-13, -9.748188521212932624E-15, 79.60000000000000853 ) ) ;
#239 = ORIENTED_EDGE ( 'NONE', *, *, #45, .F. ) ;
#240 = DIRECTION ( 'NONE',  ( -3.491481338843133355E-15, 1.224646799147353207E-16, -1.000000000000000000 ) ) ;
#241 = CONICAL_SURFACE ( 'NONE', #211, 1.600000000000000977, 0.7853981633974512766 ) ;
#242 = FACE_OUTER_BOUND ( 'NONE', #143, .T. ) ;
#243 = APPROVAL_DATE_TIME ( #169, #129 ) ;
ENDSEC;
END-ISO-10303-21;
