ISO-10303-21;
HEADER;
FILE_DESCRIPTION (( 'STEP AP203' ),
    '1' );
FILE_NAME ('321728.step',
    '2021-12-02T12:57:01',
    ( '' ),
    ( '' ),
    'SwSTEP 2.0',
    'SolidWorks 2019',
    '' );
FILE_SCHEMA (( 'CONFIG_CONTROL_DESIGN' ));
ENDSEC;

DATA;
#1 = APPROVAL_ROLE ( '' ) ;
#2 = FACE_OUTER_BOUND ( 'NONE', #43, .T. ) ;
#3 = LOCAL_TIME ( 13, 57, 1.000000000000000000, #217 ) ;
#4 = FACE_OUTER_BOUND ( 'NONE', #162, .T. ) ;
#5 = DIRECTION ( 'NONE',  ( 4.275831445896958607E-31, 1.000000000000000000, 1.224646799147353207E-16 ) ) ;
#6 = CIRCLE ( 'NONE', #211, 1.999999999999992228 ) ;
#7 = CLOSED_SHELL ( 'NONE', ( #112, #71, #127, #21, #44 ) ) ;
#8 = AXIS2_PLACEMENT_3D ( 'NONE', #209, #118, #20 ) ;
#9 = ADVANCED_FACE ( 'NONE', ( #42 ), #242, .T. ) ;
#10 = CALENDAR_DATE ( 2021, 2, 12 ) ;
#11 = APPLICATION_CONTEXT ( 'configuration controlled 3d designs of mechanical parts and assemblies' ) ;
#12 = EDGE_LOOP ( 'NONE', ( #151 ) ) ;
#13 = PERSON_AND_ORGANIZATION ( #235, #144 ) ;
#14 = VERTEX_POINT ( 'NONE', #34 ) ;
#15 = VERTEX_POINT ( 'NONE', #60 ) ;
#16 = CIRCLE ( 'NONE', #123, 2.000000000000000888 ) ;
#17 = CARTESIAN_POINT ( 'NONE',  ( 2.779219145719134403E-13, 1.999999999999991340, 79.60000000000000853 ) ) ;
#18 = APPROVAL_DATE_TIME ( #131, #243 ) ;
#19 = CARTESIAN_POINT ( 'NONE',  ( 1.396592535537251370E-15, -4.898587196589405680E-17, 0.3999999999999994116 ) ) ;
#20 = DIRECTION ( 'NONE',  ( 0.0000000000000000000, 1.000000000000000000, 0.0000000000000000000 ) ) ;
#21 = ADVANCED_FACE ( 'NONE', ( #120, #188 ), #111, .T. ) ;
#22 = DATE_TIME_ROLE ( 'classification_date' ) ;
#23 = DIRECTION ( 'NONE',  ( 0.0000000000000000000, 1.000000000000000000, 0.0000000000000000000 ) ) ;
#24 = ORIENTED_EDGE ( 'NONE', *, *, #40, .T. ) ;
#25 = CC_DESIGN_PERSON_AND_ORGANIZATION_ASSIGNMENT ( #182, #150, ( #72 ) ) ;
#26 = AXIS2_PLACEMENT_3D ( 'NONE', #104, #241, #173 ) ;
#27 = DIRECTION ( 'NONE',  ( -3.491481338843133355E-15, 1.224646799147353207E-16, -1.000000000000000000 ) ) ;
#28 = DIRECTION ( 'NONE',  ( -3.491481338843133355E-15, 1.224646799147353207E-16, -1.000000000000000000 ) ) ;
#29 = UNCERTAINTY_MEASURE_WITH_UNIT (LENGTH_MEASURE( 1.000000000000000082E-05 ), #32, 'distance_accuracy_value', 'NONE');
#30 = PRODUCT_RELATED_PRODUCT_CATEGORY ( 'detail', '', ( #72 ) ) ;
#31 = AXIS2_PLACEMENT_3D ( 'NONE', #47, #28, #133 ) ;
#32 =( LENGTH_UNIT ( ) NAMED_UNIT ( * ) SI_UNIT ( .MILLI., .METRE. ) );
#33 = EDGE_LOOP ( 'NONE', ( #138 ) ) ;
#34 = CARTESIAN_POINT ( 'NONE',  ( 2.793185071074506684E-13, 1.599999999999991207, 80.00000000000000000 ) ) ;
#35 = COORDINATED_UNIVERSAL_TIME_OFFSET ( 1, 0, .AHEAD. ) ;
#36 = DIRECTION ( 'NONE',  ( 0.0000000000000000000, 1.000000000000000000, 0.0000000000000000000 ) ) ;
#37 = ORIENTED_EDGE ( 'NONE', *, *, #126, .T. ) ;
#38 = FACE_OUTER_BOUND ( 'NONE', #12, .T. ) ;
#39 = DATE_AND_TIME ( #238, #58 ) ;
#40 = EDGE_CURVE ( 'NONE', #219, #219, #6, .T. ) ;
#41 = PLANE ( 'NONE',  #187 ) ;
#42 = FACE_OUTER_BOUND ( 'NONE', #203, .T. ) ;
#43 = EDGE_LOOP ( 'NONE', ( #37 ) ) ;
#44 = ADVANCED_FACE ( 'NONE', ( #136 ), #41, .F. ) ;
#45 = FACE_OUTER_BOUND ( 'NONE', #82, .T. ) ;
#46 = CIRCLE ( 'NONE', #63, 2.110000000000028741 ) ;
#47 = CARTESIAN_POINT ( 'NONE',  ( 4.189777606611760026E-14, -1.469576158976823947E-15, 12.00000000000000000 ) ) ;
#48 = EDGE_CURVE ( 'NONE', #215, #215, #183, .T. ) ;
#49 = SECURITY_CLASSIFICATION ( '', '', #192 ) ;
#50 = CC_DESIGN_PERSON_AND_ORGANIZATION_ASSIGNMENT ( #180, #195, ( #49 ) ) ;
#51 = DATE_AND_TIME ( #161, #196 ) ;
#52 = VERTEX_POINT ( 'NONE', #17 ) ;
#53 = AXIS2_PLACEMENT_3D ( 'NONE', #19, #100, #107 ) ;
#54 =( NAMED_UNIT ( * ) PLANE_ANGLE_UNIT ( ) SI_UNIT ( $, .RADIAN. ) );
#55 = CARTESIAN_POINT ( 'NONE',  ( 4.498196183312082507E-14, 1.999999999999990452, 12.88334591186019118 ) ) ;
#56 = ORIENTED_EDGE ( 'NONE', *, *, #208, .F. ) ;
#57 = CARTESIAN_POINT ( 'NONE',  ( 1.396592535537252553E-15, 2.510000000000029985, 0.3999999999999997446 ) ) ;
#58 = LOCAL_TIME ( 13, 57, 1.000000000000000000, #240 ) ;
#59 = MANIFOLD_SOLID_BREP ( 'Corps-Déplacer/Copier1[2]', #119 ) ;
#60 = CARTESIAN_POINT ( 'NONE',  ( 4.189777606611760026E-14, 2.510000000000028653, 12.00000000000000000 ) ) ;
#61 = EDGE_LOOP ( 'NONE', ( #169 ) ) ;
#62 = CARTESIAN_POINT ( 'NONE',  ( 4.498196183312082507E-14, -1.577754833326771950E-15, 12.88334591186019118 ) ) ;
#63 = AXIS2_PLACEMENT_3D ( 'NONE', #103, #84, #106 ) ;
#64 = DIRECTION ( 'NONE',  ( 3.491481338843133355E-15, -1.224646799147353207E-16, 1.000000000000000000 ) ) ;
#65 = DIRECTION ( 'NONE',  ( 4.275831445896958607E-31, 1.000000000000000000, 1.224646799147353207E-16 ) ) ;
#66 = CARTESIAN_POINT ( 'NONE',  ( 4.189777606611760026E-14, 1.882198527240651879E-32, 12.00000000000000000 ) ) ;
#67 = APPROVAL_PERSON_ORGANIZATION ( #181, #202, #1 ) ;
#68 = FACE_OUTER_BOUND ( 'NONE', #94, .T. ) ;
#69 = APPROVAL_DATE_TIME ( #39, #172 ) ;
#70 = APPLICATION_CONTEXT ( 'configuration controlled 3d designs of mechanical parts and assemblies' ) ;
#71 = ADVANCED_FACE ( 'NONE', ( #171, #45 ), #85, .T. ) ;
#72 = PRODUCT ( '321728', '321728', '', ( #113 ) ) ;
#73 = DIRECTION ( 'NONE',  ( -3.491481338843133355E-15, 1.224646799147353207E-16, -1.000000000000000000 ) ) ;
#74 = APPROVAL_STATUS ( 'not_yet_approved' ) ;
#75 = AXIS2_PLACEMENT_3D ( 'NONE', #177, #141, #5 ) ;
#76 = CC_DESIGN_PERSON_AND_ORGANIZATION_ASSIGNMENT ( #125, #230, ( #154 ) ) ;
#77 = PERSON_AND_ORGANIZATION ( #235, #144 ) ;
#78 = VERTEX_POINT ( 'NONE', #197 ) ;
#79 = EDGE_LOOP ( 'NONE', ( #83 ) ) ;
#80 = DIRECTION ( 'NONE',  ( -3.491481338843133355E-15, 1.224646799147353207E-16, -1.000000000000000000 ) ) ;
#81 = CC_DESIGN_APPROVAL ( #243, ( #147 ) ) ;
#82 = EDGE_LOOP ( 'NONE', ( #205 ) ) ;
#83 = ORIENTED_EDGE ( 'NONE', *, *, #135, .F. ) ;
#84 = DIRECTION ( 'NONE',  ( -3.491481338843133355E-15, 1.224646799147353207E-16, -1.000000000000000000 ) ) ;
#85 = CONICAL_SURFACE ( 'NONE', #92, 2.510000000000029985, 0.5235987755983000369 ) ;
#86 = CC_DESIGN_DATE_AND_TIME_ASSIGNMENT ( #212, #22, ( #49 ) ) ;
#87 = SHAPE_DEFINITION_REPRESENTATION ( #108, #213 ) ;
#88 = DIRECTION ( 'NONE',  ( -3.491481338843133355E-15, 1.224646799147353207E-16, -1.000000000000000000 ) ) ;
#89 = DIRECTION ( 'NONE',  ( 3.491481338843133355E-15, -1.224646799147353207E-16, 1.000000000000000000 ) ) ;
#90 = DIRECTION ( 'NONE',  ( -3.491481338843133355E-15, 1.224646799147353207E-16, -1.000000000000000000 ) ) ;
#91 = EDGE_CURVE ( 'NONE', #78, #78, #46, .T. ) ;
#92 = AXIS2_PLACEMENT_3D ( 'NONE', #122, #27, #23 ) ;
#93 = AXIS2_PLACEMENT_3D ( 'NONE', #225, #64, #176 ) ;
#94 = EDGE_LOOP ( 'NONE', ( #233 ) ) ;
#95 = CARTESIAN_POINT ( 'NONE',  ( 2.793185071074506684E-13, -9.797174393178826052E-15, 80.00000000000000000 ) ) ;
#96 = ADVANCED_FACE ( 'NONE', ( #2, #210 ), #179, .T. ) ;
#97 = APPLICATION_PROTOCOL_DEFINITION ( 'international standard', 'config_control_design', 1994, #70 ) ;
#98 = DIRECTION ( 'NONE',  ( 0.0000000000000000000, 0.0000000000000000000, 1.000000000000000000 ) ) ;
#99 = CALENDAR_DATE ( 2021, 2, 12 ) ;
#100 = DIRECTION ( 'NONE',  ( -3.491481338843133355E-15, 1.224646799147353207E-16, -1.000000000000000000 ) ) ;
#101 = CC_DESIGN_APPROVAL ( #202, ( #154 ) ) ;
#102 = EDGE_LOOP ( 'NONE', ( #130 ) ) ;
#103 = CARTESIAN_POINT ( 'NONE',  ( -9.022004350842705291E-31, 3.164493141416561810E-32, -2.584004746200950221E-16 ) ) ;
#104 = CARTESIAN_POINT ( 'NONE',  ( 2.793185071074506684E-13, -9.797174393178826052E-15, 80.00000000000000000 ) ) ;
#105 =( GEOMETRIC_REPRESENTATION_CONTEXT ( 3 ) GLOBAL_UNCERTAINTY_ASSIGNED_CONTEXT ( ( #29 ) ) GLOBAL_UNIT_ASSIGNED_CONTEXT ( ( #32, #54, #199 ) ) REPRESENTATION_CONTEXT ( 'NONE', 'WORKASPACE' ) );
#106 = DIRECTION ( 'NONE',  ( 4.275831445896958607E-31, 1.000000000000000000, 1.224646799147353207E-16 ) ) ;
#107 = DIRECTION ( 'NONE',  ( 4.603816600128795430E-31, 1.000000000000000000, 1.295859170301384180E-16 ) ) ;
#108 = PRODUCT_DEFINITION_SHAPE ( 'NONE', 'NONE',  #147 ) ;
#109 = ADVANCED_FACE ( 'NONE', ( #4 ), #137, .T. ) ;
#110 = APPROVAL_STATUS ( 'not_yet_approved' ) ;
#111 = CONICAL_SURFACE ( 'NONE', #26, 1.600000000000000977, 0.7853981633974512766 ) ;
#112 = ADVANCED_FACE ( 'NONE', ( #117 ), #227, .F. ) ;
#113 = MECHANICAL_CONTEXT ( 'NONE', #11, 'mechanical' ) ;
#114 = DIRECTION ( 'NONE',  ( 1.000000000000000000, 0.0000000000000000000, 0.0000000000000000000 ) ) ;
#115 = AXIS2_PLACEMENT_3D ( 'NONE', #95, #73, #36 ) ;
#116 = DIRECTION ( 'NONE',  ( 4.275831445896958607E-31, 1.000000000000000000, 1.224646799147353207E-16 ) ) ;
#117 = FACE_OUTER_BOUND ( 'NONE', #61, .T. ) ;
#118 = DIRECTION ( 'NONE',  ( -3.491481338843133355E-15, 1.224646799147353207E-16, -1.000000000000000000 ) ) ;
#119 = CLOSED_SHELL ( 'NONE', ( #198, #109, #9, #96 ) ) ;
#120 = FACE_OUTER_BOUND ( 'NONE', #79, .T. ) ;
#121 = DIRECTION ( 'NONE',  ( 4.275831445896958607E-31, 1.000000000000000000, 1.224646799147353207E-16 ) ) ;
#122 = CARTESIAN_POINT ( 'NONE',  ( 4.189777606611760026E-14, -1.469576158976823947E-15, 12.00000000000000000 ) ) ;
#123 = AXIS2_PLACEMENT_3D ( 'NONE', #191, #90, #228 ) ;
#124 = FACE_OUTER_BOUND ( 'NONE', #102, .T. ) ;
#125 = PERSON_AND_ORGANIZATION ( #235, #144 ) ;
#126 = EDGE_CURVE ( 'NONE', #143, #143, #140, .T. ) ;
#127 = ADVANCED_FACE ( 'NONE', ( #68, #124 ), #157, .T. ) ;
#128 = CC_DESIGN_APPROVAL ( #172, ( #49 ) ) ;
#129 = PERSON_AND_ORGANIZATION_ROLE ( 'creator' ) ;
#130 = ORIENTED_EDGE ( 'NONE', *, *, #135, .T. ) ;
#131 = DATE_AND_TIME ( #236, #3 ) ;
#132 = MANIFOLD_SOLID_BREP ( 'Corps-Déplacer/Copier1[1]', #7 ) ;
#133 = DIRECTION ( 'NONE',  ( 0.0000000000000000000, 1.000000000000000000, 0.0000000000000000000 ) ) ;
#134 = ORIENTED_EDGE ( 'NONE', *, *, #208, .T. ) ;
#135 = EDGE_CURVE ( 'NONE', #52, #52, #16, .T. ) ;
#136 = FACE_OUTER_BOUND ( 'NONE', #149, .T. ) ;
#137 = PLANE ( 'NONE',  #220 ) ;
#138 = ORIENTED_EDGE ( 'NONE', *, *, #48, .T. ) ;
#139 = DIRECTION ( 'NONE',  ( 3.491481338843133355E-15, -1.224646799147353207E-16, 1.000000000000000000 ) ) ;
#140 = CIRCLE ( 'NONE', #53, 2.510000000000029985 ) ;
#141 = DIRECTION ( 'NONE',  ( -3.491481338843133355E-15, 1.224646799147353207E-16, -1.000000000000000000 ) ) ;
#142 = PERSON_AND_ORGANIZATION_ROLE ( 'creator' ) ;
#143 = VERTEX_POINT ( 'NONE', #57 ) ;
#144 = ORGANIZATION ( 'UNSPECIFIED', 'UNSPECIFIED', '' ) ;
#145 = AXIS2_PLACEMENT_3D ( 'NONE', #153, #224, #121 ) ;
#146 = DATE_AND_TIME ( #10, #239 ) ;
#147 = PRODUCT_DEFINITION ( 'UNKNOWN', '', #154, #216 ) ;
#148 = CARTESIAN_POINT ( 'NONE',  ( 0.0000000000000000000, 0.0000000000000000000, 0.0000000000000000000 ) ) ;
#149 = EDGE_LOOP ( 'NONE', ( #56 ) ) ;
#150 = PERSON_AND_ORGANIZATION_ROLE ( 'design_owner' ) ;
#151 = ORIENTED_EDGE ( 'NONE', *, *, #126, .F. ) ;
#152 = ORIENTED_EDGE ( 'NONE', *, *, #91, .F. ) ;
#153 = CARTESIAN_POINT ( 'NONE',  ( -4.511002175421352645E-31, 1.582246570708280905E-32, -1.292002373100475111E-16 ) ) ;
#154 = PRODUCT_DEFINITION_FORMATION_WITH_SPECIFIED_SOURCE ( 'ANY', '', #72, .NOT_KNOWN. ) ;
#155 = CARTESIAN_POINT ( 'NONE',  ( 2.793185071074506684E-13, 1.199807826129472128E-32, 80.00000000000000000 ) ) ;
#156 = CARTESIAN_POINT ( 'NONE',  ( 4.189777606611760026E-14, 1.882198527240651879E-32, 12.00000000000000000 ) ) ;
#157 = CYLINDRICAL_SURFACE ( 'NONE', #75, 1.999999999999996669 ) ;
#158 = CIRCLE ( 'NONE', #115, 1.600000000000000977 ) ;
#159 = CC_DESIGN_PERSON_AND_ORGANIZATION_ASSIGNMENT ( #77, #129, ( #147 ) ) ;
#160 = AXIS2_PLACEMENT_3D ( 'NONE', #148, #80, #116 ) ;
#161 = CALENDAR_DATE ( 2021, 2, 12 ) ;
#162 = EDGE_LOOP ( 'NONE', ( #189 ) ) ;
#163 = CARTESIAN_POINT ( 'NONE',  ( 0.0000000000000000000, 0.0000000000000000000, 0.0000000000000000000 ) ) ;
#164 = CYLINDRICAL_SURFACE ( 'NONE', #160, 2.510000000000029985 ) ;
#165 = APPLICATION_PROTOCOL_DEFINITION ( 'international standard', 'config_control_design', 1994, #11 ) ;
#166 = PERSON_AND_ORGANIZATION ( #235, #144 ) ;
#167 = ORIENTED_EDGE ( 'NONE', *, *, #91, .T. ) ;
#168 = APPROVAL_PERSON_ORGANIZATION ( #234, #243, #200 ) ;
#169 = ORIENTED_EDGE ( 'NONE', *, *, #178, .T. ) ;
#170 = APPROVAL_ROLE ( '' ) ;
#171 = FACE_BOUND ( 'NONE', #190, .T. ) ;
#172 = APPROVAL ( #222, 'UNSPECIFIED' ) ;
#173 = DIRECTION ( 'NONE',  ( 0.0000000000000000000, 1.000000000000000000, 0.0000000000000000000 ) ) ;
#174 = LOCAL_TIME ( 13, 57, 1.000000000000000000, #175 ) ;
#175 = COORDINATED_UNIVERSAL_TIME_OFFSET ( 1, 0, .AHEAD. ) ;
#176 = DIRECTION ( 'NONE',  ( -4.275831445896958607E-31, -1.000000000000000000, -1.224646799147353207E-16 ) ) ;
#177 = CARTESIAN_POINT ( 'NONE',  ( 0.0000000000000000000, 0.0000000000000000000, 0.0000000000000000000 ) ) ;
#178 = EDGE_CURVE ( 'NONE', #15, #15, #214, .T. ) ;
#179 = CONICAL_SURFACE ( 'NONE', #93, 2.110000000000028741, 0.7853981633974504994 ) ;
#180 = PERSON_AND_ORGANIZATION ( #235, #144 ) ;
#181 = PERSON_AND_ORGANIZATION ( #235, #144 ) ;
#182 = PERSON_AND_ORGANIZATION ( #235, #144 ) ;
#183 = CIRCLE ( 'NONE', #8, 2.510000000000029985 ) ;
#184 = CARTESIAN_POINT ( 'NONE',  ( 4.189777606611760026E-14, 2.510000000000028653, 12.00000000000000000 ) ) ;
#185 = DIRECTION ( 'NONE',  ( -4.275831445896958607E-31, -1.000000000000000000, -1.224646799147353207E-16 ) ) ;
#186 = EDGE_LOOP ( 'NONE', ( #134 ) ) ;
#187 = AXIS2_PLACEMENT_3D ( 'NONE', #155, #226, #65 ) ;
#188 = FACE_BOUND ( 'NONE', #186, .T. ) ;
#189 = ORIENTED_EDGE ( 'NONE', *, *, #48, .F. ) ;
#190 = EDGE_LOOP ( 'NONE', ( #24 ) ) ;
#191 = CARTESIAN_POINT ( 'NONE',  ( 2.779219145719134403E-13, -9.748188521212932624E-15, 79.60000000000000853 ) ) ;
#192 = SECURITY_CLASSIFICATION_LEVEL ( 'unclassified' ) ;
#193 = CC_DESIGN_SECURITY_CLASSIFICATION ( #49, ( #154 ) ) ;
#194 = AXIS2_PLACEMENT_3D ( 'NONE', #163, #98, #114 ) ;
#195 = PERSON_AND_ORGANIZATION_ROLE ( 'classification_officer' ) ;
#196 = LOCAL_TIME ( 13, 57, 1.000000000000000000, #35 ) ;
#197 = CARTESIAN_POINT ( 'NONE',  ( 0.0000000000000000000, 2.110000000000028741, 0.0000000000000000000 ) ) ;
#198 = ADVANCED_FACE ( 'NONE', ( #221, #38 ), #164, .T. ) ;
#199 =( NAMED_UNIT ( * ) SI_UNIT ( $, .STERADIAN. ) SOLID_ANGLE_UNIT ( ) );
#200 = APPROVAL_ROLE ( '' ) ;
#201 = COORDINATED_UNIVERSAL_TIME_OFFSET ( 1, 0, .AHEAD. ) ;
#202 = APPROVAL ( #110, 'UNSPECIFIED' ) ;
#203 = EDGE_LOOP ( 'NONE', ( #167 ) ) ;
#204 = DIRECTION ( 'NONE',  ( 0.0000000000000000000, 1.000000000000000000, 0.0000000000000000000 ) ) ;
#205 = ORIENTED_EDGE ( 'NONE', *, *, #178, .F. ) ;
#206 = APPROVAL_PERSON_ORGANIZATION ( #166, #172, #170 ) ;
#207 = DIRECTION ( 'NONE',  ( -4.275831445896958607E-31, -1.000000000000000000, -1.224646799147353207E-16 ) ) ;
#208 = EDGE_CURVE ( 'NONE', #14, #14, #158, .T. ) ;
#209 = CARTESIAN_POINT ( 'NONE',  ( 4.189777606611760026E-14, -1.469576158976823947E-15, 12.00000000000000000 ) ) ;
#210 = FACE_BOUND ( 'NONE', #223, .T. ) ;
#211 = AXIS2_PLACEMENT_3D ( 'NONE', #62, #88, #204 ) ;
#212 = DATE_AND_TIME ( #99, #174 ) ;
#213 = ADVANCED_BREP_SHAPE_REPRESENTATION ( '321728', ( #132, #59, #194 ), #105 ) ;
#214 = CIRCLE ( 'NONE', #31, 2.510000000000029985 ) ;
#215 = VERTEX_POINT ( 'NONE', #184 ) ;
#216 = DESIGN_CONTEXT ( 'detailed design', #70, 'design' ) ;
#217 = COORDINATED_UNIVERSAL_TIME_OFFSET ( 1, 0, .AHEAD. ) ;
#218 = DATE_TIME_ROLE ( 'creation_date' ) ;
#219 = VERTEX_POINT ( 'NONE', #55 ) ;
#220 = AXIS2_PLACEMENT_3D ( 'NONE', #156, #89, #207 ) ;
#221 = FACE_OUTER_BOUND ( 'NONE', #33, .T. ) ;
#222 = APPROVAL_STATUS ( 'not_yet_approved' ) ;
#223 = EDGE_LOOP ( 'NONE', ( #152 ) ) ;
#224 = DIRECTION ( 'NONE',  ( -3.491481338843133355E-15, 1.224646799147353207E-16, -1.000000000000000000 ) ) ;
#225 = CARTESIAN_POINT ( 'NONE',  ( -9.022004350842705291E-31, 3.164493141416561810E-32, -2.584004746200950221E-16 ) ) ;
#226 = DIRECTION ( 'NONE',  ( -3.491481338843133355E-15, 1.224646799147353207E-16, -1.000000000000000000 ) ) ;
#227 = PLANE ( 'NONE',  #229 ) ;
#228 = DIRECTION ( 'NONE',  ( 0.0000000000000000000, 1.000000000000000000, 0.0000000000000000000 ) ) ;
#229 = AXIS2_PLACEMENT_3D ( 'NONE', #66, #139, #185 ) ;
#230 = PERSON_AND_ORGANIZATION_ROLE ( 'design_supplier' ) ;
#231 = APPROVAL_DATE_TIME ( #51, #202 ) ;
#232 = CC_DESIGN_DATE_AND_TIME_ASSIGNMENT ( #146, #218, ( #147 ) ) ;
#233 = ORIENTED_EDGE ( 'NONE', *, *, #40, .F. ) ;
#234 = PERSON_AND_ORGANIZATION ( #235, #144 ) ;
#235 = PERSON ( 'UNSPECIFIED', 'UNSPECIFIED', 'UNSPECIFIED', ('UNSPECIFIED'), ('UNSPECIFIED'), ('UNSPECIFIED') ) ;
#236 = CALENDAR_DATE ( 2021, 2, 12 ) ;
#237 = CC_DESIGN_PERSON_AND_ORGANIZATION_ASSIGNMENT ( #13, #142, ( #154 ) ) ;
#238 = CALENDAR_DATE ( 2021, 2, 12 ) ;
#239 = LOCAL_TIME ( 13, 57, 1.000000000000000000, #201 ) ;
#240 = COORDINATED_UNIVERSAL_TIME_OFFSET ( 1, 0, .AHEAD. ) ;
#241 = DIRECTION ( 'NONE',  ( -3.491481338843133355E-15, 1.224646799147353207E-16, -1.000000000000000000 ) ) ;
#242 = PLANE ( 'NONE',  #145 ) ;
#243 = APPROVAL ( #74, 'UNSPECIFIED' ) ;
ENDSEC;
END-ISO-10303-21;
