ISO-10303-21;
HEADER;
FILE_DESCRIPTION (( 'STEP AP203' ),
    '1' );
FILE_NAME ('321727.step',
    '2021-12-02T12:57:00',
    ( '' ),
    ( '' ),
    'SwSTEP 2.0',
    'SolidWorks 2019',
    '' );
FILE_SCHEMA (( 'CONFIG_CONTROL_DESIGN' ));
ENDSEC;

DATA;
#1 = DIRECTION ( 'NONE',  ( -3.491481338843133355E-15, 1.224646799147353207E-16, -1.000000000000000000 ) ) ;
#2 = CIRCLE ( 'NONE', #102, 2.505000000000030091 ) ;
#3 = PLANE ( 'NONE',  #159 ) ;
#4 = ADVANCED_FACE ( 'NONE', ( #12, #83 ), #98, .T. ) ;
#5 = VERTEX_POINT ( 'NONE', #234 ) ;
#6 = CARTESIAN_POINT ( 'NONE',  ( 4.189777606611760026E-14, 1.878449127783997482E-32, 12.00000000000000000 ) ) ;
#7 = DIRECTION ( 'NONE',  ( -3.491481338843133355E-15, 1.224646799147353207E-16, -1.000000000000000000 ) ) ;
#8 = CARTESIAN_POINT ( 'NONE',  ( 4.189777606611760026E-14, -1.469576158976823947E-15, 12.00000000000000000 ) ) ;
#9 = PLANE ( 'NONE',  #146 ) ;
#10 = CC_DESIGN_APPROVAL ( #191, ( #80 ) ) ;
#11 = COORDINATED_UNIVERSAL_TIME_OFFSET ( 1, 0, .AHEAD. ) ;
#12 = FACE_OUTER_BOUND ( 'NONE', #203, .T. ) ;
#13 = PERSON_AND_ORGANIZATION ( #18, #111 ) ;
#14 = PERSON_AND_ORGANIZATION_ROLE ( 'classification_officer' ) ;
#15 = EDGE_LOOP ( 'NONE', ( #184 ) ) ;
#16 = EDGE_LOOP ( 'NONE', ( #142 ) ) ;
#17 = LOCAL_TIME ( 13, 57, 0.0000000000000000000, #11 ) ;
#18 = PERSON ( 'UNSPECIFIED', 'UNSPECIFIED', 'UNSPECIFIED', ('UNSPECIFIED'), ('UNSPECIFIED'), ('UNSPECIFIED') ) ;
#19 = DIRECTION ( 'NONE',  ( -3.491481338843133355E-15, 1.224646799147353207E-16, -1.000000000000000000 ) ) ;
#20 = FACE_BOUND ( 'NONE', #144, .T. ) ;
#21 = FACE_OUTER_BOUND ( 'NONE', #242, .T. ) ;
#22 = FACE_BOUND ( 'NONE', #220, .T. ) ;
#23 = PERSON_AND_ORGANIZATION ( #18, #111 ) ;
#24 = CARTESIAN_POINT ( 'NONE',  ( 4.189777606611760026E-14, 2.505000000000028759, 12.00000000000000000 ) ) ;
#25 = COORDINATED_UNIVERSAL_TIME_OFFSET ( 1, 0, .AHEAD. ) ;
#26 = VERTEX_POINT ( 'NONE', #196 ) ;
#27 = ORIENTED_EDGE ( 'NONE', *, *, #34, .F. ) ;
#28 = ADVANCED_BREP_SHAPE_REPRESENTATION ( '321727', ( #125, #211, #153 ), #129 ) ;
#29 = CC_DESIGN_PERSON_AND_ORGANIZATION_ASSIGNMENT ( #241, #138, ( #166 ) ) ;
#30 = ORIENTED_EDGE ( 'NONE', *, *, #34, .T. ) ;
#31 = SECURITY_CLASSIFICATION_LEVEL ( 'unclassified' ) ;
#32 = DIRECTION ( 'NONE',  ( 4.275831445896958607E-31, 1.000000000000000000, 1.224646799147353454E-16 ) ) ;
#33 = AXIS2_PLACEMENT_3D ( 'NONE', #74, #99, #118 ) ;
#34 = EDGE_CURVE ( 'NONE', #5, #5, #232, .T. ) ;
#35 = CC_DESIGN_PERSON_AND_ORGANIZATION_ASSIGNMENT ( #163, #41, ( #215 ) ) ;
#36 = DIRECTION ( 'NONE',  ( 0.0000000000000000000, 1.000000000000000000, 0.0000000000000000000 ) ) ;
#37 = CC_DESIGN_APPROVAL ( #240, ( #166 ) ) ;
#38 = DIRECTION ( 'NONE',  ( 1.000000000000000000, 0.0000000000000000000, 0.0000000000000000000 ) ) ;
#39 = VERTEX_POINT ( 'NONE', #152 ) ;
#40 = DATE_AND_TIME ( #217, #192 ) ;
#41 = PERSON_AND_ORGANIZATION_ROLE ( 'creator' ) ;
#42 = EDGE_CURVE ( 'NONE', #26, #26, #225, .T. ) ;
#43 = ORIENTED_EDGE ( 'NONE', *, *, #109, .F. ) ;
#44 = CONICAL_SURFACE ( 'NONE', #238, 2.505000000000030091, 0.5235987755982998149 ) ;
#45 = COORDINATED_UNIVERSAL_TIME_OFFSET ( 1, 0, .AHEAD. ) ;
#46 = COORDINATED_UNIVERSAL_TIME_OFFSET ( 1, 0, .AHEAD. ) ;
#47 = ORIENTED_EDGE ( 'NONE', *, *, #60, .T. ) ;
#48 = COORDINATED_UNIVERSAL_TIME_OFFSET ( 1, 0, .AHEAD. ) ;
#49 = EDGE_LOOP ( 'NONE', ( #88 ) ) ;
#50 = APPROVAL_ROLE ( '' ) ;
#51 = CARTESIAN_POINT ( 'NONE',  ( 1.396592535537251370E-15, -4.898587196589405680E-17, 0.3999999999999994116 ) ) ;
#52 = EDGE_CURVE ( 'NONE', #193, #193, #2, .T. ) ;
#53 = FACE_OUTER_BOUND ( 'NONE', #15, .T. ) ;
#54 = DIRECTION ( 'NONE',  ( 0.0000000000000000000, 1.000000000000000000, 0.0000000000000000000 ) ) ;
#55 = DIRECTION ( 'NONE',  ( -3.491481338843133355E-15, 1.224646799147353207E-16, -1.000000000000000000 ) ) ;
#56 = LOCAL_TIME ( 13, 57, 0.0000000000000000000, #45 ) ;
#57 =( NAMED_UNIT ( * ) SI_UNIT ( $, .STERADIAN. ) SOLID_ANGLE_UNIT ( ) );
#58 = VERTEX_POINT ( 'NONE', #81 ) ;
#59 = DIRECTION ( 'NONE',  ( -3.491481338843133355E-15, 1.224646799147353207E-16, -1.000000000000000000 ) ) ;
#60 = EDGE_CURVE ( 'NONE', #58, #58, #175, .T. ) ;
#61 =( NAMED_UNIT ( * ) PLANE_ANGLE_UNIT ( ) SI_UNIT ( $, .RADIAN. ) );
#62 = APPLICATION_PROTOCOL_DEFINITION ( 'international standard', 'config_control_design', 1994, #158 ) ;
#63 = CARTESIAN_POINT ( 'NONE',  ( 0.0000000000000000000, 0.0000000000000000000, 0.0000000000000000000 ) ) ;
#64 = APPROVAL_DATE_TIME ( #123, #240 ) ;
#65 = APPROVAL_STATUS ( 'not_yet_approved' ) ;
#66 = EDGE_LOOP ( 'NONE', ( #103 ) ) ;
#67 = DESIGN_CONTEXT ( 'detailed design', #158, 'design' ) ;
#68 = PERSON_AND_ORGANIZATION_ROLE ( 'design_supplier' ) ;
#69 = ORIENTED_EDGE ( 'NONE', *, *, #109, .T. ) ;
#70 = CC_DESIGN_SECURITY_CLASSIFICATION ( #80, ( #166 ) ) ;
#71 = DIRECTION ( 'NONE',  ( -3.491481338843133355E-15, 1.224646799147353207E-16, -1.000000000000000000 ) ) ;
#72 = CARTESIAN_POINT ( 'NONE',  ( 0.0000000000000000000, 0.0000000000000000000, 0.0000000000000000000 ) ) ;
#73 = CONICAL_SURFACE ( 'NONE', #133, 2.105000000000028848, 0.7853981633974504994 ) ;
#74 = CARTESIAN_POINT ( 'NONE',  ( 4.495172471775805634E-14, -1.576694258088047300E-15, 12.87468565782234720 ) ) ;
#75 = APPLICATION_CONTEXT ( 'configuration controlled 3d designs of mechanical parts and assemblies' ) ;
#76 = APPROVAL_STATUS ( 'not_yet_approved' ) ;
#77 = ADVANCED_FACE ( 'NONE', ( #187, #227 ), #210, .T. ) ;
#78 = DIRECTION ( 'NONE',  ( 3.491481338843133355E-15, -1.224646799147353207E-16, 1.000000000000000000 ) ) ;
#79 = DIRECTION ( 'NONE',  ( 0.0000000000000000000, 0.0000000000000000000, 1.000000000000000000 ) ) ;
#80 = SECURITY_CLASSIFICATION ( '', '', #31 ) ;
#81 = CARTESIAN_POINT ( 'NONE',  ( 1.396592535537252553E-15, 2.505000000000030091, 0.3999999999999997446 ) ) ;
#82 = APPROVAL_PERSON_ORGANIZATION ( #13, #240, #50 ) ;
#83 = FACE_OUTER_BOUND ( 'NONE', #49, .T. ) ;
#84 = CALENDAR_DATE ( 2021, 2, 12 ) ;
#85 = PRODUCT ( '321727', '321727', '', ( #177 ) ) ;
#86 = DATE_TIME_ROLE ( 'creation_date' ) ;
#87 = CC_DESIGN_PERSON_AND_ORGANIZATION_ASSIGNMENT ( #143, #68, ( #166 ) ) ;
#88 = ORIENTED_EDGE ( 'NONE', *, *, #208, .T. ) ;
#89 = CLOSED_SHELL ( 'NONE', ( #231, #114, #4, #77, #157 ) ) ;
#90 = CARTESIAN_POINT ( 'NONE',  ( 2.793185071074506684E-13, -9.797174393178826052E-15, 80.00000000000000000 ) ) ;
#91 = PLANE ( 'NONE',  #117 ) ;
#92 = CARTESIAN_POINT ( 'NONE',  ( 4.189777606611760026E-14, 1.878449127783997482E-32, 12.00000000000000000 ) ) ;
#93 = DIRECTION ( 'NONE',  ( -3.491481338843133355E-15, 1.224646799147353207E-16, -1.000000000000000000 ) ) ;
#94 = AXIS2_PLACEMENT_3D ( 'NONE', #51, #110, #132 ) ;
#95 = AXIS2_PLACEMENT_3D ( 'NONE', #90, #112, #189 ) ;
#96 = PERSON_AND_ORGANIZATION_ROLE ( 'design_owner' ) ;
#97 = APPLICATION_PROTOCOL_DEFINITION ( 'international standard', 'config_control_design', 1994, #75 ) ;
#98 = CYLINDRICAL_SURFACE ( 'NONE', #164, 1.999999999999996669 ) ;
#99 = DIRECTION ( 'NONE',  ( -3.491481338843133355E-15, 1.224646799147353207E-16, -1.000000000000000000 ) ) ;
#100 = CC_DESIGN_PERSON_AND_ORGANIZATION_ASSIGNMENT ( #213, #96, ( #85 ) ) ;
#101 = VERTEX_POINT ( 'NONE', #235 ) ;
#102 = AXIS2_PLACEMENT_3D ( 'NONE', #216, #71, #54 ) ;
#103 = ORIENTED_EDGE ( 'NONE', *, *, #52, .F. ) ;
#104 = ORIENTED_EDGE ( 'NONE', *, *, #208, .F. ) ;
#105 = PRODUCT_DEFINITION_SHAPE ( 'NONE', 'NONE',  #215 ) ;
#106 = PRODUCT_RELATED_PRODUCT_CATEGORY ( 'detail', '', ( #85 ) ) ;
#107 = CALENDAR_DATE ( 2021, 2, 12 ) ;
#108 = EDGE_LOOP ( 'NONE', ( #223 ) ) ;
#109 = EDGE_CURVE ( 'NONE', #101, #101, #221, .T. ) ;
#110 = DIRECTION ( 'NONE',  ( -3.491481338843133355E-15, 1.224646799147353207E-16, -1.000000000000000000 ) ) ;
#111 = ORGANIZATION ( 'UNSPECIFIED', 'UNSPECIFIED', '' ) ;
#112 = DIRECTION ( 'NONE',  ( -3.491481338843133355E-15, 1.224646799147353207E-16, -1.000000000000000000 ) ) ;
#113 = CYLINDRICAL_SURFACE ( 'NONE', #130, 2.505000000000030091 ) ;
#114 = ADVANCED_FACE ( 'NONE', ( #22, #21 ), #44, .T. ) ;
#115 = CC_DESIGN_PERSON_AND_ORGANIZATION_ASSIGNMENT ( #120, #14, ( #80 ) ) ;
#116 = DIRECTION ( 'NONE',  ( 0.0000000000000000000, 1.000000000000000000, 0.0000000000000000000 ) ) ;
#117 = AXIS2_PLACEMENT_3D ( 'NONE', #92, #127, #172 ) ;
#118 = DIRECTION ( 'NONE',  ( 0.0000000000000000000, 1.000000000000000000, 0.0000000000000000000 ) ) ;
#119 = DIRECTION ( 'NONE',  ( 4.275831445896958607E-31, 1.000000000000000000, 1.224646799147353207E-16 ) ) ;
#120 = PERSON_AND_ORGANIZATION ( #18, #111 ) ;
#121 = AXIS2_PLACEMENT_3D ( 'NONE', #8, #7, #156 ) ;
#122 = ADVANCED_FACE ( 'NONE', ( #53, #131 ), #113, .T. ) ;
#123 = DATE_AND_TIME ( #107, #197 ) ;
#124 = ORIENTED_EDGE ( 'NONE', *, *, #198, .T. ) ;
#125 = MANIFOLD_SOLID_BREP ( 'Corps-Déplacer/Copier1[1]', #89 ) ;
#126 = UNCERTAINTY_MEASURE_WITH_UNIT (LENGTH_MEASURE( 1.000000000000000082E-05 ), #135, 'distance_accuracy_value', 'NONE');
#127 = DIRECTION ( 'NONE',  ( 3.491481338843133355E-15, -1.224646799147353207E-16, 1.000000000000000000 ) ) ;
#128 = FACE_OUTER_BOUND ( 'NONE', #66, .T. ) ;
#129 =( GEOMETRIC_REPRESENTATION_CONTEXT ( 3 ) GLOBAL_UNCERTAINTY_ASSIGNED_CONTEXT ( ( #126 ) ) GLOBAL_UNIT_ASSIGNED_CONTEXT ( ( #135, #61, #57 ) ) REPRESENTATION_CONTEXT ( 'NONE', 'WORKASPACE' ) );
#130 = AXIS2_PLACEMENT_3D ( 'NONE', #72, #190, #32 ) ;
#131 = FACE_OUTER_BOUND ( 'NONE', #108, .T. ) ;
#132 = DIRECTION ( 'NONE',  ( 4.613005854819671297E-31, 1.000000000000000000, 1.298445715551486752E-16 ) ) ;
#133 = AXIS2_PLACEMENT_3D ( 'NONE', #170, #149, #173 ) ;
#134 = FACE_OUTER_BOUND ( 'NONE', #16, .T. ) ;
#135 =( LENGTH_UNIT ( ) NAMED_UNIT ( * ) SI_UNIT ( .MILLI., .METRE. ) );
#136 = DIRECTION ( 'NONE',  ( 0.0000000000000000000, 1.000000000000000000, 0.0000000000000000000 ) ) ;
#137 = CARTESIAN_POINT ( 'NONE',  ( 4.495172471775805634E-14, 1.999999999999990452, 12.87468565782234720 ) ) ;
#138 = PERSON_AND_ORGANIZATION_ROLE ( 'creator' ) ;
#139 = ADVANCED_FACE ( 'NONE', ( #128 ), #91, .T. ) ;
#140 = AXIS2_PLACEMENT_3D ( 'NONE', #233, #93, #136 ) ;
#141 = CLOSED_SHELL ( 'NONE', ( #122, #139, #185, #162 ) ) ;
#142 = ORIENTED_EDGE ( 'NONE', *, *, #42, .T. ) ;
#143 = PERSON_AND_ORGANIZATION ( #18, #111 ) ;
#144 = EDGE_LOOP ( 'NONE', ( #27 ) ) ;
#145 = DATE_AND_TIME ( #219, #56 ) ;
#146 = AXIS2_PLACEMENT_3D ( 'NONE', #218, #160, #119 ) ;
#147 = CARTESIAN_POINT ( 'NONE',  ( 4.189777606611760026E-14, -1.469576158976823947E-15, 12.00000000000000000 ) ) ;
#148 = FACE_OUTER_BOUND ( 'NONE', #168, .T. ) ;
#149 = DIRECTION ( 'NONE',  ( 3.491481338843133355E-15, -1.224646799147353207E-16, 1.000000000000000000 ) ) ;
#150 = DIRECTION ( 'NONE',  ( 4.275831445896958607E-31, 1.000000000000000000, 1.224646799147353207E-16 ) ) ;
#151 = CARTESIAN_POINT ( 'NONE',  ( 2.793185071074506684E-13, -9.797174393178826052E-15, 80.00000000000000000 ) ) ;
#152 = CARTESIAN_POINT ( 'NONE',  ( 2.779219145719134403E-13, 1.999999999999991340, 79.60000000000000853 ) ) ;
#153 = AXIS2_PLACEMENT_3D ( 'NONE', #63, #79, #38 ) ;
#154 = APPROVAL_ROLE ( '' ) ;
#155 = FACE_OUTER_BOUND ( 'NONE', #204, .T. ) ;
#156 = DIRECTION ( 'NONE',  ( 0.0000000000000000000, 1.000000000000000000, 0.0000000000000000000 ) ) ;
#157 = ADVANCED_FACE ( 'NONE', ( #209 ), #171, .F. ) ;
#158 = APPLICATION_CONTEXT ( 'configuration controlled 3d designs of mechanical parts and assemblies' ) ;
#159 = AXIS2_PLACEMENT_3D ( 'NONE', #6, #78, #178 ) ;
#160 = DIRECTION ( 'NONE',  ( -3.491481338843133355E-15, 1.224646799147353207E-16, -1.000000000000000000 ) ) ;
#161 = PERSON_AND_ORGANIZATION ( #18, #111 ) ;
#162 = ADVANCED_FACE ( 'NONE', ( #148, #20 ), #73, .T. ) ;
#163 = PERSON_AND_ORGANIZATION ( #18, #111 ) ;
#164 = AXIS2_PLACEMENT_3D ( 'NONE', #176, #1, #228 ) ;
#165 = DATE_AND_TIME ( #84, #17 ) ;
#166 = PRODUCT_DEFINITION_FORMATION_WITH_SPECIFIED_SOURCE ( 'ANY', '', #85, .NOT_KNOWN. ) ;
#167 = ORIENTED_EDGE ( 'NONE', *, *, #198, .F. ) ;
#168 = EDGE_LOOP ( 'NONE', ( #47 ) ) ;
#169 = AXIS2_PLACEMENT_3D ( 'NONE', #151, #55, #116 ) ;
#170 = CARTESIAN_POINT ( 'NONE',  ( -9.000625193613220577E-31, 3.156994342503253562E-32, -2.577881512205213838E-16 ) ) ;
#171 = PLANE ( 'NONE',  #174 ) ;
#172 = DIRECTION ( 'NONE',  ( -4.275831445896958607E-31, -1.000000000000000000, -1.224646799147353207E-16 ) ) ;
#173 = DIRECTION ( 'NONE',  ( -4.275831445896958607E-31, -1.000000000000000000, -1.224646799147353207E-16 ) ) ;
#174 = AXIS2_PLACEMENT_3D ( 'NONE', #206, #19, #150 ) ;
#175 = CIRCLE ( 'NONE', #94, 2.505000000000030091 ) ;
#176 = CARTESIAN_POINT ( 'NONE',  ( 0.0000000000000000000, 0.0000000000000000000, 0.0000000000000000000 ) ) ;
#177 = MECHANICAL_CONTEXT ( 'NONE', #75, 'mechanical' ) ;
#178 = DIRECTION ( 'NONE',  ( -4.275831445896958607E-31, -1.000000000000000000, -1.224646799147353207E-16 ) ) ;
#179 = AXIS2_PLACEMENT_3D ( 'NONE', #207, #59, #214 ) ;
#180 = DATE_AND_TIME ( #237, #230 ) ;
#181 = EDGE_LOOP ( 'NONE', ( #43 ) ) ;
#182 = APPROVAL_PERSON_ORGANIZATION ( #161, #191, #236 ) ;
#183 = CIRCLE ( 'NONE', #140, 2.000000000000000888 ) ;
#184 = ORIENTED_EDGE ( 'NONE', *, *, #52, .T. ) ;
#185 = ADVANCED_FACE ( 'NONE', ( #155 ), #9, .T. ) ;
#186 = APPROVAL ( #76, 'UNSPECIFIED' ) ;
#187 = FACE_OUTER_BOUND ( 'NONE', #201, .T. ) ;
#188 = APPROVAL_PERSON_ORGANIZATION ( #23, #186, #154 ) ;
#189 = DIRECTION ( 'NONE',  ( 0.0000000000000000000, 1.000000000000000000, 0.0000000000000000000 ) ) ;
#190 = DIRECTION ( 'NONE',  ( -3.491481338843133355E-15, 1.224646799147353207E-16, -1.000000000000000000 ) ) ;
#191 = APPROVAL ( #65, 'UNSPECIFIED' ) ;
#192 = LOCAL_TIME ( 13, 57, 0.0000000000000000000, #25 ) ;
#193 = VERTEX_POINT ( 'NONE', #24 ) ;
#194 = CC_DESIGN_DATE_AND_TIME_ASSIGNMENT ( #165, #222, ( #80 ) ) ;
#195 = VERTEX_POINT ( 'NONE', #137 ) ;
#196 = CARTESIAN_POINT ( 'NONE',  ( 4.189777606611760026E-14, 2.505000000000028759, 12.00000000000000000 ) ) ;
#197 = LOCAL_TIME ( 13, 57, 0.0000000000000000000, #48 ) ;
#198 = EDGE_CURVE ( 'NONE', #195, #195, #239, .T. ) ;
#199 = APPROVAL_DATE_TIME ( #40, #186 ) ;
#200 = EDGE_LOOP ( 'NONE', ( #69 ) ) ;
#201 = EDGE_LOOP ( 'NONE', ( #104 ) ) ;
#202 = APPROVAL_DATE_TIME ( #180, #191 ) ;
#203 = EDGE_LOOP ( 'NONE', ( #167 ) ) ;
#204 = EDGE_LOOP ( 'NONE', ( #30 ) ) ;
#205 = SHAPE_DEFINITION_REPRESENTATION ( #105, #28 ) ;
#206 = CARTESIAN_POINT ( 'NONE',  ( 2.793185071074506684E-13, 1.199807826129472128E-32, 80.00000000000000000 ) ) ;
#207 = CARTESIAN_POINT ( 'NONE',  ( -9.000625193613220577E-31, 3.156994342503253562E-32, -2.577881512205213838E-16 ) ) ;
#208 = EDGE_CURVE ( 'NONE', #39, #39, #183, .T. ) ;
#209 = FACE_OUTER_BOUND ( 'NONE', #181, .T. ) ;
#210 = CONICAL_SURFACE ( 'NONE', #95, 1.600000000000000977, 0.7853981633974512766 ) ;
#211 = MANIFOLD_SOLID_BREP ( 'Corps-Déplacer/Copier1[2]', #141 ) ;
#212 = CC_DESIGN_APPROVAL ( #186, ( #215 ) ) ;
#213 = PERSON_AND_ORGANIZATION ( #18, #111 ) ;
#214 = DIRECTION ( 'NONE',  ( 4.275831445896958607E-31, 1.000000000000000000, 1.224646799147353207E-16 ) ) ;
#215 = PRODUCT_DEFINITION ( 'UNKNOWN', '', #166, #67 ) ;
#216 = CARTESIAN_POINT ( 'NONE',  ( 4.189777606611760026E-14, -1.469576158976823947E-15, 12.00000000000000000 ) ) ;
#217 = CALENDAR_DATE ( 2021, 2, 12 ) ;
#218 = CARTESIAN_POINT ( 'NONE',  ( -4.500312596806610288E-31, 1.578497171251626781E-32, -1.288940756102606919E-16 ) ) ;
#219 = CALENDAR_DATE ( 2021, 2, 12 ) ;
#220 = EDGE_LOOP ( 'NONE', ( #124 ) ) ;
#221 = CIRCLE ( 'NONE', #169, 1.600000000000000977 ) ;
#222 = DATE_TIME_ROLE ( 'classification_date' ) ;
#223 = ORIENTED_EDGE ( 'NONE', *, *, #60, .F. ) ;
#224 = APPROVAL_STATUS ( 'not_yet_approved' ) ;
#225 = CIRCLE ( 'NONE', #121, 2.505000000000030091 ) ;
#226 = CC_DESIGN_DATE_AND_TIME_ASSIGNMENT ( #145, #86, ( #215 ) ) ;
#227 = FACE_BOUND ( 'NONE', #200, .T. ) ;
#228 = DIRECTION ( 'NONE',  ( 4.275831445896958607E-31, 1.000000000000000000, 1.224646799147353207E-16 ) ) ;
#229 = DIRECTION ( 'NONE',  ( -3.491481338843133355E-15, 1.224646799147353207E-16, -1.000000000000000000 ) ) ;
#230 = LOCAL_TIME ( 13, 57, 0.0000000000000000000, #46 ) ;
#231 = ADVANCED_FACE ( 'NONE', ( #134 ), #3, .F. ) ;
#232 = CIRCLE ( 'NONE', #179, 2.105000000000028848 ) ;
#233 = CARTESIAN_POINT ( 'NONE',  ( 2.779219145719134403E-13, -9.748188521212932624E-15, 79.60000000000000853 ) ) ;
#234 = CARTESIAN_POINT ( 'NONE',  ( 0.0000000000000000000, 2.105000000000028848, 0.0000000000000000000 ) ) ;
#235 = CARTESIAN_POINT ( 'NONE',  ( 2.793185071074506684E-13, 1.599999999999991207, 80.00000000000000000 ) ) ;
#236 = APPROVAL_ROLE ( '' ) ;
#237 = CALENDAR_DATE ( 2021, 2, 12 ) ;
#238 = AXIS2_PLACEMENT_3D ( 'NONE', #147, #229, #36 ) ;
#239 = CIRCLE ( 'NONE', #33, 1.999999999999992228 ) ;
#240 = APPROVAL ( #224, 'UNSPECIFIED' ) ;
#241 = PERSON_AND_ORGANIZATION ( #18, #111 ) ;
#242 = EDGE_LOOP ( 'NONE', ( #243 ) ) ;
#243 = ORIENTED_EDGE ( 'NONE', *, *, #42, .F. ) ;
ENDSEC;
END-ISO-10303-21;
