ISO-10303-21;
HEADER;
FILE_DESCRIPTION (( 'STEP AP203' ),
    '1' );
FILE_NAME ('321726.step',
    '2021-12-02T12:56:59',
    ( '' ),
    ( '' ),
    'SwSTEP 2.0',
    'SolidWorks 2019',
    '' );
FILE_SCHEMA (( 'CONFIG_CONTROL_DESIGN' ));
ENDSEC;

DATA;
#1 = EDGE_CURVE ( 'NONE', #142, #142, #111, .T. ) ;
#2 = CLOSED_SHELL ( 'NONE', ( #153, #62, #107, #55, #138 ) ) ;
#3 = CARTESIAN_POINT ( 'NONE',  ( 4.189777606611760026E-14, 1.874699728327342810E-32, 12.00000000000000000 ) ) ;
#4 = DIRECTION ( 'NONE',  ( -3.491481338843133355E-15, 1.224646799147353207E-16, -1.000000000000000000 ) ) ;
#5 = SECURITY_CLASSIFICATION ( '', '', #145 ) ;
#6 = EDGE_LOOP ( 'NONE', ( #147 ) ) ;
#7 = DIRECTION ( 'NONE',  ( -3.491481338843133355E-15, 1.224646799147353207E-16, -1.000000000000000000 ) ) ;
#8 = PLANE ( 'NONE',  #35 ) ;
#9 = VERTEX_POINT ( 'NONE', #84 ) ;
#10 = FACE_OUTER_BOUND ( 'NONE', #214, .T. ) ;
#11 = FACE_BOUND ( 'NONE', #6, .T. ) ;
#12 =( NAMED_UNIT ( * ) PLANE_ANGLE_UNIT ( ) SI_UNIT ( $, .RADIAN. ) );
#13 = CARTESIAN_POINT ( 'NONE',  ( 2.793185071074506684E-13, -9.797174393178826052E-15, 80.00000000000000000 ) ) ;
#14 = CALENDAR_DATE ( 2021, 2, 12 ) ;
#15 = ADVANCED_BREP_SHAPE_REPRESENTATION ( '321726', ( #201, #118, #106 ), #224 ) ;
#16 = COORDINATED_UNIVERSAL_TIME_OFFSET ( 1, 0, .AHEAD. ) ;
#17 = EDGE_LOOP ( 'NONE', ( #58 ) ) ;
#18 = ORIENTED_EDGE ( 'NONE', *, *, #38, .T. ) ;
#19 = CIRCLE ( 'NONE', #148, 2.500000000000030198 ) ;
#20 = EDGE_CURVE ( 'NONE', #103, #103, #171, .T. ) ;
#21 = DIRECTION ( 'NONE',  ( -3.491481338843133355E-15, 1.224646799147353207E-16, -1.000000000000000000 ) ) ;
#22 = CARTESIAN_POINT ( 'NONE',  ( 1.396592535537250581E-15, -4.898587196589402598E-17, 0.3999999999999991895 ) ) ;
#23 = CARTESIAN_POINT ( 'NONE',  ( 2.793185071074506684E-13, 1.199807826129472128E-32, 80.00000000000000000 ) ) ;
#24 = DIRECTION ( 'NONE',  ( 0.0000000000000000000, 1.000000000000000000, 0.0000000000000000000 ) ) ;
#25 = ORIENTED_EDGE ( 'NONE', *, *, #216, .T. ) ;
#26 = CC_DESIGN_PERSON_AND_ORGANIZATION_ASSIGNMENT ( #56, #164, ( #137 ) ) ;
#27 = LOCAL_TIME ( 13, 56, 59.00000000000000000, #70 ) ;
#28 = VERTEX_POINT ( 'NONE', #53 ) ;
#29 = PLANE ( 'NONE',  #93 ) ;
#30 = DIRECTION ( 'NONE',  ( 1.000000000000000000, 0.0000000000000000000, 0.0000000000000000000 ) ) ;
#31 = CC_DESIGN_DATE_AND_TIME_ASSIGNMENT ( #182, #88, ( #5 ) ) ;
#32 = CARTESIAN_POINT ( 'NONE',  ( -8.979246036383735863E-31, 3.149495543589944220E-32, -2.571758278209476963E-16 ) ) ;
#33 = APPROVAL_ROLE ( '' ) ;
#34 = CC_DESIGN_PERSON_AND_ORGANIZATION_ASSIGNMENT ( #210, #165, ( #117 ) ) ;
#35 = AXIS2_PLACEMENT_3D ( 'NONE', #23, #7, #154 ) ;
#36 = DATE_AND_TIME ( #243, #126 ) ;
#37 = CLOSED_SHELL ( 'NONE', ( #181, #73, #228, #229 ) ) ;
#38 = EDGE_CURVE ( 'NONE', #178, #178, #19, .T. ) ;
#39 = APPROVAL_DATE_TIME ( #87, #76 ) ;
#40 = APPROVAL_ROLE ( '' ) ;
#41 = APPROVAL_PERSON_ORGANIZATION ( #127, #76, #40 ) ;
#42 = EDGE_LOOP ( 'NONE', ( #167 ) ) ;
#43 = DIRECTION ( 'NONE',  ( -3.491481338843133355E-15, 1.224646799147353207E-16, -1.000000000000000000 ) ) ;
#44 = FACE_OUTER_BOUND ( 'NONE', #112, .T. ) ;
#45 = AXIS2_PLACEMENT_3D ( 'NONE', #152, #109, #80 ) ;
#46 = DIRECTION ( 'NONE',  ( -3.491481338843133355E-15, 1.224646799147353207E-16, -1.000000000000000000 ) ) ;
#47 = EDGE_LOOP ( 'NONE', ( #230 ) ) ;
#48 = CARTESIAN_POINT ( 'NONE',  ( 4.189777606611760026E-14, 1.874699728327342810E-32, 12.00000000000000000 ) ) ;
#49 = CIRCLE ( 'NONE', #125, 1.600000000000000977 ) ;
#50 = DIRECTION ( 'NONE',  ( -4.275831445896957731E-31, -1.000000000000000000, -1.224646799147353207E-16 ) ) ;
#51 = VERTEX_POINT ( 'NONE', #160 ) ;
#52 = CARTESIAN_POINT ( 'NONE',  ( 4.189777606611760026E-14, 2.500000000000029310, 12.00000000000000000 ) ) ;
#53 = CARTESIAN_POINT ( 'NONE',  ( 2.793185071074506684E-13, 1.599999999999991207, 80.00000000000000000 ) ) ;
#54 = PERSON_AND_ORGANIZATION ( #200, #219 ) ;
#55 = ADVANCED_FACE ( 'NONE', ( #232, #132 ), #163, .T. ) ;
#56 = PERSON_AND_ORGANIZATION ( #200, #219 ) ;
#57 = CC_DESIGN_APPROVAL ( #76, ( #137 ) ) ;
#58 = ORIENTED_EDGE ( 'NONE', *, *, #20, .F. ) ;
#59 = CARTESIAN_POINT ( 'NONE',  ( 2.779219145719134403E-13, -9.748188521212932624E-15, 79.60000000000000853 ) ) ;
#60 = EDGE_CURVE ( 'NONE', #121, #121, #86, .T. ) ;
#61 = FACE_OUTER_BOUND ( 'NONE', #196, .T. ) ;
#62 = ADVANCED_FACE ( 'NONE', ( #190, #61 ), #158, .T. ) ;
#63 = EDGE_LOOP ( 'NONE', ( #217 ) ) ;
#64 = FACE_OUTER_BOUND ( 'NONE', #235, .T. ) ;
#65 = FACE_OUTER_BOUND ( 'NONE', #187, .T. ) ;
#66 = PRODUCT_RELATED_PRODUCT_CATEGORY ( 'detail', '', ( #156 ) ) ;
#67 = DIRECTION ( 'NONE',  ( -3.491481338843133355E-15, 1.224646799147353207E-16, -1.000000000000000000 ) ) ;
#68 = PERSON_AND_ORGANIZATION ( #200, #219 ) ;
#69 = CALENDAR_DATE ( 2021, 2, 12 ) ;
#70 = COORDINATED_UNIVERSAL_TIME_OFFSET ( 1, 0, .AHEAD. ) ;
#71 = DATE_TIME_ROLE ( 'creation_date' ) ;
#72 = AXIS2_PLACEMENT_3D ( 'NONE', #75, #150, #81 ) ;
#73 = ADVANCED_FACE ( 'NONE', ( #213 ), #110, .T. ) ;
#74 = DESIGN_CONTEXT ( 'detailed design', #102, 'design' ) ;
#75 = CARTESIAN_POINT ( 'NONE',  ( 0.0000000000000000000, 0.0000000000000000000, 0.0000000000000000000 ) ) ;
#76 = APPROVAL ( #186, 'UNSPECIFIED' ) ;
#77 = AXIS2_PLACEMENT_3D ( 'NONE', #212, #4, #24 ) ;
#78 = ORIENTED_EDGE ( 'NONE', *, *, #209, .T. ) ;
#79 = DIRECTION ( 'NONE',  ( 0.0000000000000000000, 1.000000000000000000, 0.0000000000000000000 ) ) ;
#80 = DIRECTION ( 'NONE',  ( 0.0000000000000000000, 1.000000000000000000, 0.0000000000000000000 ) ) ;
#81 = DIRECTION ( 'NONE',  ( 4.275831445896958607E-31, 1.000000000000000000, 1.224646799147353207E-16 ) ) ;
#82 = DIRECTION ( 'NONE',  ( 3.491481338843133355E-15, -1.224646799147353207E-16, 1.000000000000000000 ) ) ;
#83 = CARTESIAN_POINT ( 'NONE',  ( 0.0000000000000000000, 0.0000000000000000000, 0.0000000000000000000 ) ) ;
#84 = CARTESIAN_POINT ( 'NONE',  ( 1.710569414459005214E-46, 2.100000000000028955, 0.0000000000000000000 ) ) ;
#85 = COORDINATED_UNIVERSAL_TIME_OFFSET ( 1, 0, .AHEAD. ) ;
#86 = CIRCLE ( 'NONE', #175, 2.000000000000000888 ) ;
#87 = DATE_AND_TIME ( #227, #27 ) ;
#88 = DATE_TIME_ROLE ( 'classification_date' ) ;
#89 = UNCERTAINTY_MEASURE_WITH_UNIT (LENGTH_MEASURE( 1.000000000000000082E-05 ), #119, 'distance_accuracy_value', 'NONE');
#90 = CC_DESIGN_PERSON_AND_ORGANIZATION_ASSIGNMENT ( #68, #225, ( #5 ) ) ;
#91 = APPLICATION_CONTEXT ( 'configuration controlled 3d designs of mechanical parts and assemblies' ) ;
#92 = ORIENTED_EDGE ( 'NONE', *, *, #122, .T. ) ;
#93 = AXIS2_PLACEMENT_3D ( 'NONE', #221, #236, #99 ) ;
#94 = DIRECTION ( 'NONE',  ( 4.622231866529309995E-31, 1.000000000000000000, 1.301042606982589544E-16 ) ) ;
#95 = ORIENTED_EDGE ( 'NONE', *, *, #1, .F. ) ;
#96 = DIRECTION ( 'NONE',  ( -3.491481338843133355E-15, 1.224646799147353207E-16, -1.000000000000000000 ) ) ;
#97 = EDGE_LOOP ( 'NONE', ( #78 ) ) ;
#98 = AXIS2_PLACEMENT_3D ( 'NONE', #194, #21, #131 ) ;
#99 = DIRECTION ( 'NONE',  ( 4.275831445896958607E-31, 1.000000000000000000, 1.224646799147353207E-16 ) ) ;
#100 = DIRECTION ( 'NONE',  ( 0.0000000000000000000, 1.000000000000000000, 0.0000000000000000000 ) ) ;
#101 = FACE_OUTER_BOUND ( 'NONE', #234, .T. ) ;
#102 = APPLICATION_CONTEXT ( 'configuration controlled 3d designs of mechanical parts and assemblies' ) ;
#103 = VERTEX_POINT ( 'NONE', #116 ) ;
#104 = DATE_AND_TIME ( #128, #197 ) ;
#105 = PERSON_AND_ORGANIZATION_ROLE ( 'design_owner' ) ;
#106 = AXIS2_PLACEMENT_3D ( 'NONE', #83, #203, #30 ) ;
#107 = ADVANCED_FACE ( 'NONE', ( #133, #192 ), #134, .T. ) ;
#108 = APPROVAL_STATUS ( 'not_yet_approved' ) ;
#109 = DIRECTION ( 'NONE',  ( -3.491481338843133355E-15, 1.224646799147353207E-16, -1.000000000000000000 ) ) ;
#110 = PLANE ( 'NONE',  #159 ) ;
#111 = CIRCLE ( 'NONE', #98, 2.500000000000030198 ) ;
#112 = EDGE_LOOP ( 'NONE', ( #155 ) ) ;
#113 = CC_DESIGN_PERSON_AND_ORGANIZATION_ASSIGNMENT ( #162, #205, ( #117 ) ) ;
#114 = ORIENTED_EDGE ( 'NONE', *, *, #122, .F. ) ;
#115 = DIRECTION ( 'NONE',  ( -4.275831445896958607E-31, -1.000000000000000000, -1.224646799147353207E-16 ) ) ;
#116 = CARTESIAN_POINT ( 'NONE',  ( 4.492148760239528129E-14, 1.999999999999990452, 12.86602540378450144 ) ) ;
#117 = PRODUCT_DEFINITION_FORMATION_WITH_SPECIFIED_SOURCE ( 'ANY', '', #156, .NOT_KNOWN. ) ;
#118 = MANIFOLD_SOLID_BREP ( 'Corps-Déplacer/Copier1[2]', #37 ) ;
#119 =( LENGTH_UNIT ( ) NAMED_UNIT ( * ) SI_UNIT ( .MILLI., .METRE. ) );
#120 = MECHANICAL_CONTEXT ( 'NONE', #91, 'mechanical' ) ;
#121 = VERTEX_POINT ( 'NONE', #141 ) ;
#122 = EDGE_CURVE ( 'NONE', #51, #51, #139, .T. ) ;
#123 = APPROVAL_STATUS ( 'not_yet_approved' ) ;
#124 = APPROVAL_ROLE ( '' ) ;
#125 = AXIS2_PLACEMENT_3D ( 'NONE', #13, #67, #100 ) ;
#126 = LOCAL_TIME ( 13, 56, 59.00000000000000000, #85 ) ;
#127 = PERSON_AND_ORGANIZATION ( #200, #219 ) ;
#128 = CALENDAR_DATE ( 2021, 2, 12 ) ;
#129 = CC_DESIGN_SECURITY_CLASSIFICATION ( #5, ( #117 ) ) ;
#130 = CC_DESIGN_DATE_AND_TIME_ASSIGNMENT ( #104, #71, ( #137 ) ) ;
#131 = DIRECTION ( 'NONE',  ( 0.0000000000000000000, 1.000000000000000000, 0.0000000000000000000 ) ) ;
#132 = FACE_BOUND ( 'NONE', #169, .T. ) ;
#133 = FACE_OUTER_BOUND ( 'NONE', #17, .T. ) ;
#134 = CYLINDRICAL_SURFACE ( 'NONE', #72, 1.999999999999996669 ) ;
#135 = ORIENTED_EDGE ( 'NONE', *, *, #38, .F. ) ;
#136 =( NAMED_UNIT ( * ) SI_UNIT ( $, .STERADIAN. ) SOLID_ANGLE_UNIT ( ) );
#137 = PRODUCT_DEFINITION ( 'UNKNOWN', '', #117, #74 ) ;
#138 = ADVANCED_FACE ( 'NONE', ( #44 ), #8, .F. ) ;
#139 = CIRCLE ( 'NONE', #211, 2.500000000000030198 ) ;
#140 = APPROVAL_PERSON_ORGANIZATION ( #149, #161, #124 ) ;
#141 = CARTESIAN_POINT ( 'NONE',  ( 2.779219145719134403E-13, 1.999999999999991340, 79.60000000000000853 ) ) ;
#142 = VERTEX_POINT ( 'NONE', #52 ) ;
#143 = LOCAL_TIME ( 13, 56, 59.00000000000000000, #166 ) ;
#144 = AXIS2_PLACEMENT_3D ( 'NONE', #193, #43, #215 ) ;
#145 = SECURITY_CLASSIFICATION_LEVEL ( 'unclassified' ) ;
#146 = PERSON_AND_ORGANIZATION ( #200, #219 ) ;
#147 = ORIENTED_EDGE ( 'NONE', *, *, #209, .F. ) ;
#148 = AXIS2_PLACEMENT_3D ( 'NONE', #151, #96, #79 ) ;
#149 = PERSON_AND_ORGANIZATION ( #200, #219 ) ;
#150 = DIRECTION ( 'NONE',  ( -3.491481338843133355E-15, 1.224646799147353207E-16, -1.000000000000000000 ) ) ;
#151 = CARTESIAN_POINT ( 'NONE',  ( 4.189777606611760026E-14, -1.469576158976823947E-15, 12.00000000000000000 ) ) ;
#152 = CARTESIAN_POINT ( 'NONE',  ( 2.793185071074506684E-13, -9.797174393178826052E-15, 80.00000000000000000 ) ) ;
#153 = ADVANCED_FACE ( 'NONE', ( #64 ), #204, .F. ) ;
#154 = DIRECTION ( 'NONE',  ( 4.275831445896958607E-31, 1.000000000000000000, 1.224646799147353207E-16 ) ) ;
#155 = ORIENTED_EDGE ( 'NONE', *, *, #216, .F. ) ;
#156 = PRODUCT ( '321726', '321726', '', ( #120 ) ) ;
#157 = CARTESIAN_POINT ( 'NONE',  ( -8.979246036383735863E-31, 3.149495543589944220E-32, -2.571758278209476963E-16 ) ) ;
#158 = CONICAL_SURFACE ( 'NONE', #144, 2.500000000000030198, 0.5235987755983003700 ) ;
#159 = AXIS2_PLACEMENT_3D ( 'NONE', #3, #174, #115 ) ;
#160 = CARTESIAN_POINT ( 'NONE',  ( 1.396592535537251764E-15, 2.500000000000030198, 0.3999999999999995226 ) ) ;
#161 = APPROVAL ( #123, 'UNSPECIFIED' ) ;
#162 = PERSON_AND_ORGANIZATION ( #200, #219 ) ;
#163 = CONICAL_SURFACE ( 'NONE', #45, 1.600000000000000977, 0.7853981633974512766 ) ;
#164 = PERSON_AND_ORGANIZATION_ROLE ( 'creator' ) ;
#165 = PERSON_AND_ORGANIZATION_ROLE ( 'design_supplier' ) ;
#166 = COORDINATED_UNIVERSAL_TIME_OFFSET ( 1, 0, .AHEAD. ) ;
#167 = ORIENTED_EDGE ( 'NONE', *, *, #20, .T. ) ;
#168 = APPROVAL_DATE_TIME ( #207, #191 ) ;
#169 = EDGE_LOOP ( 'NONE', ( #25 ) ) ;
#170 = AXIS2_PLACEMENT_3D ( 'NONE', #48, #241, #177 ) ;
#171 = CIRCLE ( 'NONE', #77, 1.999999999999992228 ) ;
#172 = ORIENTED_EDGE ( 'NONE', *, *, #1, .T. ) ;
#173 = DIRECTION ( 'NONE',  ( 0.0000000000000000000, 1.000000000000000000, 0.0000000000000000000 ) ) ;
#174 = DIRECTION ( 'NONE',  ( 3.491481338843133355E-15, -1.224646799147353207E-16, 1.000000000000000000 ) ) ;
#175 = AXIS2_PLACEMENT_3D ( 'NONE', #59, #46, #173 ) ;
#176 = DIRECTION ( 'NONE',  ( 4.275831445896958607E-31, 1.000000000000000000, 1.224646799147353207E-16 ) ) ;
#177 = DIRECTION ( 'NONE',  ( -4.275831445896958607E-31, -1.000000000000000000, -1.224646799147353207E-16 ) ) ;
#178 = VERTEX_POINT ( 'NONE', #180 ) ;
#179 = LOCAL_TIME ( 13, 56, 59.00000000000000000, #16 ) ;
#180 = CARTESIAN_POINT ( 'NONE',  ( 4.189777606611760026E-14, 2.500000000000029310, 12.00000000000000000 ) ) ;
#181 = ADVANCED_FACE ( 'NONE', ( #65, #10 ), #198, .T. ) ;
#182 = DATE_AND_TIME ( #14, #143 ) ;
#183 = APPROVAL_PERSON_ORGANIZATION ( #54, #191, #33 ) ;
#184 = APPLICATION_PROTOCOL_DEFINITION ( 'international standard', 'config_control_design', 1994, #102 ) ;
#185 = EDGE_LOOP ( 'NONE', ( #135 ) ) ;
#186 = APPROVAL_STATUS ( 'not_yet_approved' ) ;
#187 = EDGE_LOOP ( 'NONE', ( #18 ) ) ;
#188 = APPROVAL_DATE_TIME ( #36, #161 ) ;
#189 = CC_DESIGN_APPROVAL ( #161, ( #117 ) ) ;
#190 = FACE_BOUND ( 'NONE', #42, .T. ) ;
#191 = APPROVAL ( #108, 'UNSPECIFIED' ) ;
#192 = FACE_OUTER_BOUND ( 'NONE', #47, .T. ) ;
#193 = CARTESIAN_POINT ( 'NONE',  ( 4.189777606611760026E-14, -1.469576158976823947E-15, 12.00000000000000000 ) ) ;
#194 = CARTESIAN_POINT ( 'NONE',  ( 4.189777606611760026E-14, -1.469576158976823947E-15, 12.00000000000000000 ) ) ;
#195 = PRODUCT_DEFINITION_SHAPE ( 'NONE', 'NONE',  #137 ) ;
#196 = EDGE_LOOP ( 'NONE', ( #95 ) ) ;
#197 = LOCAL_TIME ( 13, 56, 59.00000000000000000, #242 ) ;
#198 = CYLINDRICAL_SURFACE ( 'NONE', #206, 2.500000000000030198 ) ;
#199 = CARTESIAN_POINT ( 'NONE',  ( 0.0000000000000000000, 0.0000000000000000000, 0.0000000000000000000 ) ) ;
#200 = PERSON ( 'UNSPECIFIED', 'UNSPECIFIED', 'UNSPECIFIED', ('UNSPECIFIED'), ('UNSPECIFIED'), ('UNSPECIFIED') ) ;
#201 = MANIFOLD_SOLID_BREP ( 'Corps-Déplacer/Copier1[1]', #2 ) ;
#202 = CC_DESIGN_APPROVAL ( #191, ( #5 ) ) ;
#203 = DIRECTION ( 'NONE',  ( 0.0000000000000000000, 0.0000000000000000000, 1.000000000000000000 ) ) ;
#204 = PLANE ( 'NONE',  #170 ) ;
#205 = PERSON_AND_ORGANIZATION_ROLE ( 'creator' ) ;
#206 = AXIS2_PLACEMENT_3D ( 'NONE', #199, #218, #220 ) ;
#207 = DATE_AND_TIME ( #69, #179 ) ;
#208 = CIRCLE ( 'NONE', #231, 2.100000000000028955 ) ;
#209 = EDGE_CURVE ( 'NONE', #9, #9, #208, .T. ) ;
#210 = PERSON_AND_ORGANIZATION ( #200, #219 ) ;
#211 = AXIS2_PLACEMENT_3D ( 'NONE', #22, #233, #94 ) ;
#212 = CARTESIAN_POINT ( 'NONE',  ( 4.492148760239528129E-14, -1.575633682849322256E-15, 12.86602540378450144 ) ) ;
#213 = FACE_OUTER_BOUND ( 'NONE', #185, .T. ) ;
#214 = EDGE_LOOP ( 'NONE', ( #114 ) ) ;
#215 = DIRECTION ( 'NONE',  ( 0.0000000000000000000, 1.000000000000000000, 0.0000000000000000000 ) ) ;
#216 = EDGE_CURVE ( 'NONE', #28, #28, #49, .T. ) ;
#217 = ORIENTED_EDGE ( 'NONE', *, *, #60, .F. ) ;
#218 = DIRECTION ( 'NONE',  ( -3.491481338843133355E-15, 1.224646799147353207E-16, -1.000000000000000000 ) ) ;
#219 = ORGANIZATION ( 'UNSPECIFIED', 'UNSPECIFIED', '' ) ;
#220 = DIRECTION ( 'NONE',  ( 4.275831445896958607E-31, 1.000000000000000000, 1.224646799147352961E-16 ) ) ;
#221 = CARTESIAN_POINT ( 'NONE',  ( -4.489623018191867931E-31, 1.574747771794972110E-32, -1.285879139104738481E-16 ) ) ;
#222 = FACE_OUTER_BOUND ( 'NONE', #97, .T. ) ;
#223 = DIRECTION ( 'NONE',  ( -3.491481338843133355E-15, 1.224646799147353207E-16, -1.000000000000000000 ) ) ;
#224 =( GEOMETRIC_REPRESENTATION_CONTEXT ( 3 ) GLOBAL_UNCERTAINTY_ASSIGNED_CONTEXT ( ( #89 ) ) GLOBAL_UNIT_ASSIGNED_CONTEXT ( ( #119, #12, #136 ) ) REPRESENTATION_CONTEXT ( 'NONE', 'WORKASPACE' ) );
#225 = PERSON_AND_ORGANIZATION_ROLE ( 'classification_officer' ) ;
#226 = SHAPE_DEFINITION_REPRESENTATION ( #195, #15 ) ;
#227 = CALENDAR_DATE ( 2021, 2, 12 ) ;
#228 = ADVANCED_FACE ( 'NONE', ( #222 ), #29, .T. ) ;
#229 = ADVANCED_FACE ( 'NONE', ( #101, #11 ), #238, .T. ) ;
#230 = ORIENTED_EDGE ( 'NONE', *, *, #60, .T. ) ;
#231 = AXIS2_PLACEMENT_3D ( 'NONE', #32, #223, #176 ) ;
#232 = FACE_OUTER_BOUND ( 'NONE', #63, .T. ) ;
#233 = DIRECTION ( 'NONE',  ( -3.491481338843133355E-15, 1.224646799147353207E-16, -1.000000000000000000 ) ) ;
#234 = EDGE_LOOP ( 'NONE', ( #92 ) ) ;
#235 = EDGE_LOOP ( 'NONE', ( #172 ) ) ;
#236 = DIRECTION ( 'NONE',  ( -3.491481338843133355E-15, 1.224646799147353207E-16, -1.000000000000000000 ) ) ;
#237 = CC_DESIGN_PERSON_AND_ORGANIZATION_ASSIGNMENT ( #146, #105, ( #156 ) ) ;
#238 = CONICAL_SURFACE ( 'NONE', #239, 2.100000000000028955, 0.7853981633974502774 ) ;
#239 = AXIS2_PLACEMENT_3D ( 'NONE', #157, #82, #50 ) ;
#240 = APPLICATION_PROTOCOL_DEFINITION ( 'international standard', 'config_control_design', 1994, #91 ) ;
#241 = DIRECTION ( 'NONE',  ( 3.491481338843133355E-15, -1.224646799147353207E-16, 1.000000000000000000 ) ) ;
#242 = COORDINATED_UNIVERSAL_TIME_OFFSET ( 1, 0, .AHEAD. ) ;
#243 = CALENDAR_DATE ( 2021, 2, 12 ) ;
ENDSEC;
END-ISO-10303-21;
