ISO-10303-21;
HEADER;
FILE_DESCRIPTION (( 'STEP AP203' ),
    '1' );
FILE_NAME ('321725.step',
    '2021-12-02T12:56:59',
    ( '' ),
    ( '' ),
    'SwSTEP 2.0',
    'SolidWorks 2019',
    '' );
FILE_SCHEMA (( 'CONFIG_CONTROL_DESIGN' ));
ENDSEC;

DATA;
#1 = VERTEX_POINT ( 'NONE', #101 ) ;
#2 = FACE_OUTER_BOUND ( 'NONE', #209, .T. ) ;
#3 = AXIS2_PLACEMENT_3D ( 'NONE', #38, #12, #194 ) ;
#4 = AXIS2_PLACEMENT_3D ( 'NONE', #181, #8, #155 ) ;
#5 = DESIGN_CONTEXT ( 'detailed design', #93, 'design' ) ;
#6 = ADVANCED_FACE ( 'NONE', ( #62, #131 ), #229, .T. ) ;
#7 = AXIS2_PLACEMENT_3D ( 'NONE', #120, #240, #157 ) ;
#8 = DIRECTION ( 'NONE',  ( -3.491481338843133355E-15, 1.224646799147353207E-16, -1.000000000000000000 ) ) ;
#9 = VERTEX_POINT ( 'NONE', #138 ) ;
#10 = DIRECTION ( 'NONE',  ( 4.275831445896958607E-31, 1.000000000000000000, 1.224646799147353207E-16 ) ) ;
#11 = APPROVAL_STATUS ( 'not_yet_approved' ) ;
#12 = DIRECTION ( 'NONE',  ( -3.491481338843133355E-15, 1.224646799147353207E-16, -1.000000000000000000 ) ) ;
#13 = APPROVAL_STATUS ( 'not_yet_approved' ) ;
#14 = FACE_OUTER_BOUND ( 'NONE', #95, .T. ) ;
#15 = DATE_AND_TIME ( #197, #46 ) ;
#16 = EDGE_LOOP ( 'NONE', ( #205 ) ) ;
#17 = DATE_AND_TIME ( #243, #130 ) ;
#18 = CIRCLE ( 'NONE', #40, 2.095000000000028173 ) ;
#19 = PRODUCT ( '321725', '321725', '', ( #160 ) ) ;
#20 = EDGE_LOOP ( 'NONE', ( #161 ) ) ;
#21 = CARTESIAN_POINT ( 'NONE',  ( 2.793185071074506684E-13, -9.797174393178826052E-15, 80.00000000000000000 ) ) ;
#22 = CIRCLE ( 'NONE', #132, 2.495000000000029861 ) ;
#23 = CARTESIAN_POINT ( 'NONE',  ( 0.0000000000000000000, 2.095000000000028173, 0.0000000000000000000 ) ) ;
#24 = CIRCLE ( 'NONE', #211, 2.495000000000029861 ) ;
#25 = VERTEX_POINT ( 'NONE', #23 ) ;
#26 = DIRECTION ( 'NONE',  ( -3.491481338843133355E-15, 1.224646799147353207E-16, -1.000000000000000000 ) ) ;
#27 = AXIS2_PLACEMENT_3D ( 'NONE', #136, #192, #68 ) ;
#28 = APPROVAL ( #11, 'UNSPECIFIED' ) ;
#29 = FACE_OUTER_BOUND ( 'NONE', #60, .T. ) ;
#30 = PERSON ( 'UNSPECIFIED', 'UNSPECIFIED', 'UNSPECIFIED', ('UNSPECIFIED'), ('UNSPECIFIED'), ('UNSPECIFIED') ) ;
#31 = APPROVAL_DATE_TIME ( #173, #96 ) ;
#32 = DIRECTION ( 'NONE',  ( 4.275831445896958607E-31, 1.000000000000000000, 1.224646799147353207E-16 ) ) ;
#33 = CALENDAR_DATE ( 2021, 2, 12 ) ;
#34 = CARTESIAN_POINT ( 'NONE',  ( 4.489125048703249994E-14, 1.999999999999990452, 12.85736514974665745 ) ) ;
#35 = CALENDAR_DATE ( 2021, 2, 12 ) ;
#36 = AXIS2_PLACEMENT_3D ( 'NONE', #21, #98, #172 ) ;
#37 = PRODUCT_DEFINITION_SHAPE ( 'NONE', 'NONE',  #114 ) ;
#38 = CARTESIAN_POINT ( 'NONE',  ( 4.489125048703249994E-14, -1.574573107610597212E-15, 12.85736514974665745 ) ) ;
#39 = PERSON_AND_ORGANIZATION ( #30, #162 ) ;
#40 = AXIS2_PLACEMENT_3D ( 'NONE', #47, #50, #10 ) ;
#41 = AXIS2_PLACEMENT_3D ( 'NONE', #63, #151, #164 ) ;
#42 = APPROVAL_PERSON_ORGANIZATION ( #48, #137, #156 ) ;
#43 = ADVANCED_FACE ( 'NONE', ( #2, #133 ), #115, .T. ) ;
#44 = DIRECTION ( 'NONE',  ( -4.275831445896958607E-31, -1.000000000000000000, -1.224646799147353207E-16 ) ) ;
#45 = EDGE_CURVE ( 'NONE', #103, #103, #71, .T. ) ;
#46 = LOCAL_TIME ( 13, 56, 59.00000000000000000, #202 ) ;
#47 = CARTESIAN_POINT ( 'NONE',  ( -8.957866879154249397E-31, 3.141996744676633782E-32, -2.565635044213739594E-16 ) ) ;
#48 = PERSON_AND_ORGANIZATION ( #30, #162 ) ;
#49 = ADVANCED_FACE ( 'NONE', ( #14 ), #87, .T. ) ;
#50 = DIRECTION ( 'NONE',  ( -3.491481338843133355E-15, 1.224646799147353207E-16, -1.000000000000000000 ) ) ;
#51 = PERSON_AND_ORGANIZATION_ROLE ( 'creator' ) ;
#52 = CARTESIAN_POINT ( 'NONE',  ( 1.396592535537251764E-15, 2.495000000000029861, 0.3999999999999995226 ) ) ;
#53 = CARTESIAN_POINT ( 'NONE',  ( 4.189777606611760026E-14, -1.469576158976823947E-15, 12.00000000000000000 ) ) ;
#54 = CLOSED_SHELL ( 'NONE', ( #6, #112, #49, #43 ) ) ;
#55 = LOCAL_TIME ( 13, 56, 59.00000000000000000, #110 ) ;
#56 = FACE_BOUND ( 'NONE', #111, .T. ) ;
#57 = APPROVAL_DATE_TIME ( #184, #137 ) ;
#58 = ORIENTED_EDGE ( 'NONE', *, *, #152, .T. ) ;
#59 = CC_DESIGN_PERSON_AND_ORGANIZATION_ASSIGNMENT ( #39, #51, ( #69 ) ) ;
#60 = EDGE_LOOP ( 'NONE', ( #128 ) ) ;
#61 = CC_DESIGN_PERSON_AND_ORGANIZATION_ASSIGNMENT ( #238, #215, ( #19 ) ) ;
#62 = FACE_OUTER_BOUND ( 'NONE', #149, .T. ) ;
#63 = CARTESIAN_POINT ( 'NONE',  ( 0.0000000000000000000, 0.0000000000000000000, 0.0000000000000000000 ) ) ;
#64 = LOCAL_TIME ( 13, 56, 59.00000000000000000, #193 ) ;
#65 = UNCERTAINTY_MEASURE_WITH_UNIT (LENGTH_MEASURE( 1.000000000000000082E-05 ), #118, 'distance_accuracy_value', 'NONE');
#66 = ADVANCED_FACE ( 'NONE', ( #154 ), #223, .F. ) ;
#67 = APPLICATION_CONTEXT ( 'configuration controlled 3d designs of mechanical parts and assemblies' ) ;
#68 = DIRECTION ( 'NONE',  ( 4.275831445896958607E-31, 1.000000000000000000, 1.224646799147353207E-16 ) ) ;
#69 = PRODUCT_DEFINITION_FORMATION_WITH_SPECIFIED_SOURCE ( 'ANY', '', #19, .NOT_KNOWN. ) ;
#70 = CARTESIAN_POINT ( 'NONE',  ( 4.189777606611760026E-14, -1.469576158976823947E-15, 12.00000000000000000 ) ) ;
#71 = CIRCLE ( 'NONE', #36, 1.600000000000000977 ) ;
#72 =( GEOMETRIC_REPRESENTATION_CONTEXT ( 3 ) GLOBAL_UNCERTAINTY_ASSIGNED_CONTEXT ( ( #65 ) ) GLOBAL_UNIT_ASSIGNED_CONTEXT ( ( #118, #153, #189 ) ) REPRESENTATION_CONTEXT ( 'NONE', 'WORKASPACE' ) );
#73 = DIRECTION ( 'NONE',  ( -3.491481338843133355E-15, 1.224646799147353207E-16, -1.000000000000000000 ) ) ;
#74 = DIRECTION ( 'NONE',  ( -4.275831445896958607E-31, -1.000000000000000000, -1.224646799147353207E-16 ) ) ;
#75 = PLANE ( 'NONE',  #170 ) ;
#76 = CC_DESIGN_APPROVAL ( #137, ( #114 ) ) ;
#77 = ORIENTED_EDGE ( 'NONE', *, *, #206, .F. ) ;
#78 = ADVANCED_FACE ( 'NONE', ( #92 ), #174, .F. ) ;
#79 = ORIENTED_EDGE ( 'NONE', *, *, #226, .F. ) ;
#80 = CC_DESIGN_PERSON_AND_ORGANIZATION_ASSIGNMENT ( #105, #145, ( #114 ) ) ;
#81 = ORIENTED_EDGE ( 'NONE', *, *, #179, .T. ) ;
#82 = DIRECTION ( 'NONE',  ( 3.491481338843133355E-15, -1.224646799147353207E-16, 1.000000000000000000 ) ) ;
#83 = CONICAL_SURFACE ( 'NONE', #4, 1.600000000000000977, 0.7853981633974512766 ) ;
#84 = PRODUCT_RELATED_PRODUCT_CATEGORY ( 'detail', '', ( #19 ) ) ;
#85 = AXIS2_PLACEMENT_3D ( 'NONE', #139, #200, #32 ) ;
#86 = CC_DESIGN_APPROVAL ( #96, ( #148 ) ) ;
#87 = PLANE ( 'NONE',  #7 ) ;
#88 = FACE_OUTER_BOUND ( 'NONE', #225, .T. ) ;
#89 = APPROVAL_ROLE ( '' ) ;
#90 = CARTESIAN_POINT ( 'NONE',  ( 2.793185071074506684E-13, 1.599999999999991207, 80.00000000000000000 ) ) ;
#91 = CARTESIAN_POINT ( 'NONE',  ( 2.779219145719134403E-13, -9.748188521212932624E-15, 79.60000000000000853 ) ) ;
#92 = FACE_OUTER_BOUND ( 'NONE', #146, .T. ) ;
#93 = APPLICATION_CONTEXT ( 'configuration controlled 3d designs of mechanical parts and assemblies' ) ;
#94 = APPLICATION_PROTOCOL_DEFINITION ( 'international standard', 'config_control_design', 1994, #93 ) ;
#95 = EDGE_LOOP ( 'NONE', ( #147 ) ) ;
#96 = APPROVAL ( #13, 'UNSPECIFIED' ) ;
#97 = ORIENTED_EDGE ( 'NONE', *, *, #152, .F. ) ;
#98 = DIRECTION ( 'NONE',  ( -3.491481338843133355E-15, 1.224646799147353207E-16, -1.000000000000000000 ) ) ;
#99 = CC_DESIGN_APPROVAL ( #28, ( #69 ) ) ;
#100 = AXIS2_PLACEMENT_3D ( 'NONE', #91, #108, #214 ) ;
#101 = CARTESIAN_POINT ( 'NONE',  ( 4.189777606611760026E-14, 2.495000000000028528, 12.00000000000000000 ) ) ;
#102 = DIRECTION ( 'NONE',  ( 0.0000000000000000000, 1.000000000000000000, 0.0000000000000000000 ) ) ;
#103 = VERTEX_POINT ( 'NONE', #90 ) ;
#104 = FACE_OUTER_BOUND ( 'NONE', #183, .T. ) ;
#105 = PERSON_AND_ORGANIZATION ( #30, #162 ) ;
#106 = CARTESIAN_POINT ( 'NONE',  ( 4.189777606611760026E-14, 1.870950328870687865E-32, 12.00000000000000000 ) ) ;
#107 = PERSON_AND_ORGANIZATION ( #30, #162 ) ;
#108 = DIRECTION ( 'NONE',  ( -3.491481338843133355E-15, 1.224646799147353207E-16, -1.000000000000000000 ) ) ;
#109 = PERSON_AND_ORGANIZATION_ROLE ( 'classification_officer' ) ;
#110 = COORDINATED_UNIVERSAL_TIME_OFFSET ( 1, 0, .AHEAD. ) ;
#111 = EDGE_LOOP ( 'NONE', ( #129 ) ) ;
#112 = ADVANCED_FACE ( 'NONE', ( #159 ), #75, .T. ) ;
#113 = EDGE_LOOP ( 'NONE', ( #79 ) ) ;
#114 = PRODUCT_DEFINITION ( 'UNKNOWN', '', #69, #5 ) ;
#115 = CONICAL_SURFACE ( 'NONE', #210, 2.095000000000028173, 0.7853981633974508325 ) ;
#116 = CARTESIAN_POINT ( 'NONE',  ( -8.957866879154249397E-31, 3.141996744676633782E-32, -2.565635044213739594E-16 ) ) ;
#117 = APPLICATION_PROTOCOL_DEFINITION ( 'international standard', 'config_control_design', 1994, #67 ) ;
#118 =( LENGTH_UNIT ( ) NAMED_UNIT ( * ) SI_UNIT ( .MILLI., .METRE. ) );
#119 = CIRCLE ( 'NONE', #3, 1.999999999999992228 ) ;
#120 = CARTESIAN_POINT ( 'NONE',  ( -4.478933439577124698E-31, 1.570998372338316891E-32, -1.282817522106869797E-16 ) ) ;
#121 = SECURITY_CLASSIFICATION_LEVEL ( 'unclassified' ) ;
#122 = MANIFOLD_SOLID_BREP ( 'Corps-Déplacer/Copier1[1]', #135 ) ;
#123 = DIRECTION ( 'NONE',  ( 3.491481338843133355E-15, -1.224646799147353207E-16, 1.000000000000000000 ) ) ;
#124 = VERTEX_POINT ( 'NONE', #34 ) ;
#125 = FACE_OUTER_BOUND ( 'NONE', #203, .T. ) ;
#126 = CARTESIAN_POINT ( 'NONE',  ( 4.189777606611760026E-14, -1.469576158976823947E-15, 12.00000000000000000 ) ) ;
#127 = DATE_TIME_ROLE ( 'creation_date' ) ;
#128 = ORIENTED_EDGE ( 'NONE', *, *, #180, .F. ) ;
#129 = ORIENTED_EDGE ( 'NONE', *, *, #180, .T. ) ;
#130 = LOCAL_TIME ( 13, 56, 59.00000000000000000, #140 ) ;
#131 = FACE_OUTER_BOUND ( 'NONE', #187, .T. ) ;
#132 = AXIS2_PLACEMENT_3D ( 'NONE', #53, #73, #237 ) ;
#133 = FACE_BOUND ( 'NONE', #113, .T. ) ;
#134 = CARTESIAN_POINT ( 'NONE',  ( 0.0000000000000000000, 0.0000000000000000000, 0.0000000000000000000 ) ) ;
#135 = CLOSED_SHELL ( 'NONE', ( #78, #191, #150, #232, #66 ) ) ;
#136 = CARTESIAN_POINT ( 'NONE',  ( 0.0000000000000000000, 0.0000000000000000000, 0.0000000000000000000 ) ) ;
#137 = APPROVAL ( #224, 'UNSPECIFIED' ) ;
#138 = CARTESIAN_POINT ( 'NONE',  ( 4.189777606611760026E-14, 2.495000000000028528, 12.00000000000000000 ) ) ;
#139 = CARTESIAN_POINT ( 'NONE',  ( 2.793185071074506684E-13, 1.199807826129472128E-32, 80.00000000000000000 ) ) ;
#140 = COORDINATED_UNIVERSAL_TIME_OFFSET ( 1, 0, .AHEAD. ) ;
#141 = DIRECTION ( 'NONE',  ( -3.491481338843133355E-15, 1.224646799147353207E-16, -1.000000000000000000 ) ) ;
#142 = CALENDAR_DATE ( 2021, 2, 12 ) ;
#143 = DIRECTION ( 'NONE',  ( -4.275831445896958607E-31, -1.000000000000000000, -1.224646799147353207E-16 ) ) ;
#144 = AXIS2_PLACEMENT_3D ( 'NONE', #158, #239, #74 ) ;
#145 = PERSON_AND_ORGANIZATION_ROLE ( 'creator' ) ;
#146 = EDGE_LOOP ( 'NONE', ( #58 ) ) ;
#147 = ORIENTED_EDGE ( 'NONE', *, *, #226, .T. ) ;
#148 = SECURITY_CLASSIFICATION ( '', '', #121 ) ;
#149 = EDGE_LOOP ( 'NONE', ( #227 ) ) ;
#150 = ADVANCED_FACE ( 'NONE', ( #29, #88 ), #233, .T. ) ;
#151 = DIRECTION ( 'NONE',  ( -3.491481338843133355E-15, 1.224646799147353207E-16, -1.000000000000000000 ) ) ;
#152 = EDGE_CURVE ( 'NONE', #9, #9, #22, .T. ) ;
#153 =( NAMED_UNIT ( * ) PLANE_ANGLE_UNIT ( ) SI_UNIT ( $, .RADIAN. ) );
#154 = FACE_OUTER_BOUND ( 'NONE', #20, .T. ) ;
#155 = DIRECTION ( 'NONE',  ( 0.0000000000000000000, 1.000000000000000000, 0.0000000000000000000 ) ) ;
#156 = APPROVAL_ROLE ( '' ) ;
#157 = DIRECTION ( 'NONE',  ( 4.275831445896958607E-31, 1.000000000000000000, 1.224646799147353207E-16 ) ) ;
#158 = CARTESIAN_POINT ( 'NONE',  ( 4.189777606611760026E-14, 1.870950328870687865E-32, 12.00000000000000000 ) ) ;
#159 = FACE_OUTER_BOUND ( 'NONE', #228, .T. ) ;
#160 = MECHANICAL_CONTEXT ( 'NONE', #67, 'mechanical' ) ;
#161 = ORIENTED_EDGE ( 'NONE', *, *, #45, .F. ) ;
#162 = ORGANIZATION ( 'UNSPECIFIED', 'UNSPECIFIED', '' ) ;
#163 = ORIENTED_EDGE ( 'NONE', *, *, #179, .F. ) ;
#164 = DIRECTION ( 'NONE',  ( 4.275831445896958607E-31, 1.000000000000000000, 1.224646799147353207E-16 ) ) ;
#165 = AXIS2_PLACEMENT_3D ( 'NONE', #134, #212, #190 ) ;
#166 = CIRCLE ( 'NONE', #230, 2.495000000000029861 ) ;
#167 = APPROVAL_PERSON_ORGANIZATION ( #175, #28, #89 ) ;
#168 = CARTESIAN_POINT ( 'NONE',  ( 2.779219145719134403E-13, 1.999999999999991340, 79.60000000000000853 ) ) ;
#169 = CC_DESIGN_PERSON_AND_ORGANIZATION_ASSIGNMENT ( #107, #220, ( #69 ) ) ;
#170 = AXIS2_PLACEMENT_3D ( 'NONE', #106, #123, #143 ) ;
#171 = DIRECTION ( 'NONE',  ( 0.0000000000000000000, 1.000000000000000000, 0.0000000000000000000 ) ) ;
#172 = DIRECTION ( 'NONE',  ( 0.0000000000000000000, 1.000000000000000000, 0.0000000000000000000 ) ) ;
#173 = DATE_AND_TIME ( #33, #55 ) ;
#174 = PLANE ( 'NONE',  #144 ) ;
#175 = PERSON_AND_ORGANIZATION ( #30, #162 ) ;
#176 = LOCAL_TIME ( 13, 56, 59.00000000000000000, #241 ) ;
#177 = VERTEX_POINT ( 'NONE', #168 ) ;
#178 = DATE_AND_TIME ( #142, #64 ) ;
#179 = EDGE_CURVE ( 'NONE', #217, #217, #166, .T. ) ;
#180 = EDGE_CURVE ( 'NONE', #124, #124, #119, .T. ) ;
#181 = CARTESIAN_POINT ( 'NONE',  ( 2.793185071074506684E-13, -9.797174393178826052E-15, 80.00000000000000000 ) ) ;
#182 = DATE_TIME_ROLE ( 'classification_date' ) ;
#183 = EDGE_LOOP ( 'NONE', ( #97 ) ) ;
#184 = DATE_AND_TIME ( #35, #176 ) ;
#185 = CC_DESIGN_DATE_AND_TIME_ASSIGNMENT ( #17, #127, ( #114 ) ) ;
#186 = ORIENTED_EDGE ( 'NONE', *, *, #188, .F. ) ;
#187 = EDGE_LOOP ( 'NONE', ( #163 ) ) ;
#188 = EDGE_CURVE ( 'NONE', #177, #177, #207, .T. ) ;
#189 =( NAMED_UNIT ( * ) SI_UNIT ( $, .STERADIAN. ) SOLID_ANGLE_UNIT ( ) );
#190 = DIRECTION ( 'NONE',  ( 1.000000000000000000, 0.0000000000000000000, 0.0000000000000000000 ) ) ;
#191 = ADVANCED_FACE ( 'NONE', ( #56, #104 ), #242, .T. ) ;
#192 = DIRECTION ( 'NONE',  ( -3.491481338843133355E-15, 1.224646799147353207E-16, -1.000000000000000000 ) ) ;
#193 = COORDINATED_UNIVERSAL_TIME_OFFSET ( 1, 0, .AHEAD. ) ;
#194 = DIRECTION ( 'NONE',  ( 0.0000000000000000000, 1.000000000000000000, 0.0000000000000000000 ) ) ;
#195 = PERSON_AND_ORGANIZATION ( #30, #162 ) ;
#196 = DIRECTION ( 'NONE',  ( -3.491481338843133355E-15, 1.224646799147353207E-16, -1.000000000000000000 ) ) ;
#197 = CALENDAR_DATE ( 2021, 2, 12 ) ;
#198 = ADVANCED_BREP_SHAPE_REPRESENTATION ( '321725', ( #122, #199, #165 ), #72 ) ;
#199 = MANIFOLD_SOLID_BREP ( 'Corps-Déplacer/Copier1[2]', #54 ) ;
#200 = DIRECTION ( 'NONE',  ( -3.491481338843133355E-15, 1.224646799147353207E-16, -1.000000000000000000 ) ) ;
#201 = APPROVAL_DATE_TIME ( #15, #28 ) ;
#202 = COORDINATED_UNIVERSAL_TIME_OFFSET ( 1, 0, .AHEAD. ) ;
#203 = EDGE_LOOP ( 'NONE', ( #186 ) ) ;
#204 = AXIS2_PLACEMENT_3D ( 'NONE', #126, #26, #102 ) ;
#205 = ORIENTED_EDGE ( 'NONE', *, *, #45, .T. ) ;
#206 = EDGE_CURVE ( 'NONE', #1, #1, #24, .T. ) ;
#207 = CIRCLE ( 'NONE', #100, 2.000000000000000888 ) ;
#208 = ORIENTED_EDGE ( 'NONE', *, *, #188, .T. ) ;
#209 = EDGE_LOOP ( 'NONE', ( #81 ) ) ;
#210 = AXIS2_PLACEMENT_3D ( 'NONE', #116, #82, #44 ) ;
#211 = AXIS2_PLACEMENT_3D ( 'NONE', #70, #196, #171 ) ;
#212 = DIRECTION ( 'NONE',  ( 0.0000000000000000000, 0.0000000000000000000, 1.000000000000000000 ) ) ;
#213 = CC_DESIGN_PERSON_AND_ORGANIZATION_ASSIGNMENT ( #195, #109, ( #148 ) ) ;
#214 = DIRECTION ( 'NONE',  ( 0.0000000000000000000, 1.000000000000000000, 0.0000000000000000000 ) ) ;
#215 = PERSON_AND_ORGANIZATION_ROLE ( 'design_owner' ) ;
#216 = APPROVAL_PERSON_ORGANIZATION ( #235, #96, #222 ) ;
#217 = VERTEX_POINT ( 'NONE', #52 ) ;
#218 = SHAPE_DEFINITION_REPRESENTATION ( #37, #198 ) ;
#219 = CARTESIAN_POINT ( 'NONE',  ( 1.396592535537250581E-15, -4.898587196589402598E-17, 0.3999999999999991895 ) ) ;
#220 = PERSON_AND_ORGANIZATION_ROLE ( 'design_supplier' ) ;
#221 = DIRECTION ( 'NONE',  ( 4.631494856241794464E-31, 1.000000000000000000, 1.303649906796182155E-16 ) ) ;
#222 = APPROVAL_ROLE ( '' ) ;
#223 = PLANE ( 'NONE',  #85 ) ;
#224 = APPROVAL_STATUS ( 'not_yet_approved' ) ;
#225 = EDGE_LOOP ( 'NONE', ( #208 ) ) ;
#226 = EDGE_CURVE ( 'NONE', #25, #25, #18, .T. ) ;
#227 = ORIENTED_EDGE ( 'NONE', *, *, #206, .T. ) ;
#228 = EDGE_LOOP ( 'NONE', ( #77 ) ) ;
#229 = CYLINDRICAL_SURFACE ( 'NONE', #41, 2.495000000000029861 ) ;
#230 = AXIS2_PLACEMENT_3D ( 'NONE', #219, #141, #221 ) ;
#231 = CC_DESIGN_DATE_AND_TIME_ASSIGNMENT ( #178, #182, ( #148 ) ) ;
#232 = ADVANCED_FACE ( 'NONE', ( #125, #234 ), #83, .T. ) ;
#233 = CYLINDRICAL_SURFACE ( 'NONE', #27, 1.999999999999996669 ) ;
#234 = FACE_BOUND ( 'NONE', #16, .T. ) ;
#235 = PERSON_AND_ORGANIZATION ( #30, #162 ) ;
#236 = CC_DESIGN_SECURITY_CLASSIFICATION ( #148, ( #69 ) ) ;
#237 = DIRECTION ( 'NONE',  ( 0.0000000000000000000, 1.000000000000000000, 0.0000000000000000000 ) ) ;
#238 = PERSON_AND_ORGANIZATION ( #30, #162 ) ;
#239 = DIRECTION ( 'NONE',  ( 3.491481338843133355E-15, -1.224646799147353207E-16, 1.000000000000000000 ) ) ;
#240 = DIRECTION ( 'NONE',  ( -3.491481338843133355E-15, 1.224646799147353207E-16, -1.000000000000000000 ) ) ;
#241 = COORDINATED_UNIVERSAL_TIME_OFFSET ( 1, 0, .AHEAD. ) ;
#242 = CONICAL_SURFACE ( 'NONE', #204, 2.495000000000029861, 0.5235987755983001479 ) ;
#243 = CALENDAR_DATE ( 2021, 2, 12 ) ;
ENDSEC;
END-ISO-10303-21;
