ISO-10303-21;
HEADER;
FILE_DESCRIPTION (( 'STEP AP203' ),
    '1' );
FILE_NAME ('321724.step',
    '2021-12-02T12:56:58',
    ( '' ),
    ( '' ),
    'SwSTEP 2.0',
    'SolidWorks 2019',
    '' );
FILE_SCHEMA (( 'CONFIG_CONTROL_DESIGN' ));
ENDSEC;

DATA;
#1 = DIRECTION ( 'NONE',  ( -3.491481338843133355E-15, 1.224646799147353207E-16, -1.000000000000000000 ) ) ;
#2 = DIRECTION ( 'NONE',  ( -3.491481338843133355E-15, 1.224646799147353207E-16, -1.000000000000000000 ) ) ;
#3 = AXIS2_PLACEMENT_3D ( 'NONE', #43, #23, #94 ) ;
#4 = DIRECTION ( 'NONE',  ( 4.275831445896958607E-31, 1.000000000000000000, 1.224646799147353207E-16 ) ) ;
#5 = CARTESIAN_POINT ( 'NONE',  ( 2.793185071074506684E-13, -9.797174393178826052E-15, 80.00000000000000000 ) ) ;
#6 = FACE_BOUND ( 'NONE', #16, .T. ) ;
#7 = APPROVAL_ROLE ( '' ) ;
#8 = CARTESIAN_POINT ( 'NONE',  ( 0.0000000000000000000, 2.090000000000028280, 0.0000000000000000000 ) ) ;
#9 = CC_DESIGN_DATE_AND_TIME_ASSIGNMENT ( #206, #75, ( #10 ) ) ;
#10 = SECURITY_CLASSIFICATION ( '', '', #144 ) ;
#11 = DIRECTION ( 'NONE',  ( 0.0000000000000000000, 1.000000000000000000, 0.0000000000000000000 ) ) ;
#12 = CARTESIAN_POINT ( 'NONE',  ( 0.0000000000000000000, 0.0000000000000000000, 0.0000000000000000000 ) ) ;
#13 = EDGE_LOOP ( 'NONE', ( #208 ) ) ;
#14 = CONICAL_SURFACE ( 'NONE', #62, 2.490000000000029967, 0.5235987755982999259 ) ;
#15 = PERSON_AND_ORGANIZATION ( #156, #82 ) ;
#16 = EDGE_LOOP ( 'NONE', ( #233 ) ) ;
#17 = CC_DESIGN_PERSON_AND_ORGANIZATION_ASSIGNMENT ( #35, #130, ( #57 ) ) ;
#18 = CIRCLE ( 'NONE', #182, 2.490000000000029967 ) ;
#19 = CALENDAR_DATE ( 2021, 2, 12 ) ;
#20 = PLANE ( 'NONE',  #219 ) ;
#21 = FACE_OUTER_BOUND ( 'NONE', #117, .T. ) ;
#22 = EDGE_CURVE ( 'NONE', #83, #83, #224, .T. ) ;
#23 = DIRECTION ( 'NONE',  ( -3.491481338843133355E-15, 1.224646799147353207E-16, -1.000000000000000000 ) ) ;
#24 = CARTESIAN_POINT ( 'NONE',  ( 2.793185071074506684E-13, 1.199807826129472128E-32, 80.00000000000000000 ) ) ;
#25 = DESIGN_CONTEXT ( 'detailed design', #73, 'design' ) ;
#26 = CARTESIAN_POINT ( 'NONE',  ( 4.189777606611760026E-14, -1.469576158976823947E-15, 12.00000000000000000 ) ) ;
#27 = DIRECTION ( 'NONE',  ( 4.640795046716175479E-31, 1.000000000000000000, 1.306267677693363216E-16 ) ) ;
#28 = VERTEX_POINT ( 'NONE', #239 ) ;
#29 = DIRECTION ( 'NONE',  ( 0.0000000000000000000, 0.0000000000000000000, 1.000000000000000000 ) ) ;
#30 = MANIFOLD_SOLID_BREP ( 'Corps-Déplacer/Copier1[1]', #122 ) ;
#31 = DATE_AND_TIME ( #52, #114 ) ;
#32 = AXIS2_PLACEMENT_3D ( 'NONE', #5, #231, #173 ) ;
#33 = PERSON_AND_ORGANIZATION ( #156, #82 ) ;
#34 = EDGE_LOOP ( 'NONE', ( #80 ) ) ;
#35 = PERSON_AND_ORGANIZATION ( #156, #82 ) ;
#36 = ADVANCED_FACE ( 'NONE', ( #150, #81 ), #79, .T. ) ;
#37 = MANIFOLD_SOLID_BREP ( 'Corps-Déplacer/Copier1[2]', #151 ) ;
#38 = PERSON_AND_ORGANIZATION ( #156, #82 ) ;
#39 = EDGE_LOOP ( 'NONE', ( #108 ) ) ;
#40 = AXIS2_PLACEMENT_3D ( 'NONE', #180, #102, #11 ) ;
#41 = DIRECTION ( 'NONE',  ( 3.491481338843133355E-15, -1.224646799147353207E-16, 1.000000000000000000 ) ) ;
#42 = CC_DESIGN_PERSON_AND_ORGANIZATION_ASSIGNMENT ( #33, #226, ( #10 ) ) ;
#43 = CARTESIAN_POINT ( 'NONE',  ( 4.189777606611760026E-14, -1.469576158976823947E-15, 12.00000000000000000 ) ) ;
#44 = FACE_OUTER_BOUND ( 'NONE', #13, .T. ) ;
#45 = DATE_TIME_ROLE ( 'creation_date' ) ;
#46 = VERTEX_POINT ( 'NONE', #235 ) ;
#47 = COORDINATED_UNIVERSAL_TIME_OFFSET ( 1, 0, .AHEAD. ) ;
#48 = CC_DESIGN_PERSON_AND_ORGANIZATION_ASSIGNMENT ( #218, #165, ( #104 ) ) ;
#49 = APPLICATION_CONTEXT ( 'configuration controlled 3d designs of mechanical parts and assemblies' ) ;
#50 = CC_DESIGN_APPROVAL ( #223, ( #57 ) ) ;
#51 = MECHANICAL_CONTEXT ( 'NONE', #49, 'mechanical' ) ;
#52 = CALENDAR_DATE ( 2021, 2, 12 ) ;
#53 = ORIENTED_EDGE ( 'NONE', *, *, #237, .F. ) ;
#54 = COORDINATED_UNIVERSAL_TIME_OFFSET ( 1, 0, .AHEAD. ) ;
#55 = APPROVAL_DATE_TIME ( #127, #223 ) ;
#56 = FACE_BOUND ( 'NONE', #76, .T. ) ;
#57 = PRODUCT_DEFINITION_FORMATION_WITH_SPECIFIED_SOURCE ( 'ANY', '', #143, .NOT_KNOWN. ) ;
#58 = CARTESIAN_POINT ( 'NONE',  ( 4.189777606611760026E-14, 1.867200929414033468E-32, 12.00000000000000000 ) ) ;
#59 = CARTESIAN_POINT ( 'NONE',  ( 0.0000000000000000000, 0.0000000000000000000, 0.0000000000000000000 ) ) ;
#60 = DIRECTION ( 'NONE',  ( 0.0000000000000000000, 1.000000000000000000, 0.0000000000000000000 ) ) ;
#61 = APPROVAL ( #221, 'UNSPECIFIED' ) ;
#62 = AXIS2_PLACEMENT_3D ( 'NONE', #26, #98, #136 ) ;
#63 = DIRECTION ( 'NONE',  ( -3.491481338843133355E-15, 1.224646799147353207E-16, -1.000000000000000000 ) ) ;
#64 = CARTESIAN_POINT ( 'NONE',  ( 1.396592535537252159E-15, -4.898587196589408145E-17, 0.3999999999999996336 ) ) ;
#65 = ORIENTED_EDGE ( 'NONE', *, *, #243, .T. ) ;
#66 = EDGE_CURVE ( 'NONE', #28, #28, #172, .T. ) ;
#67 = CONICAL_SURFACE ( 'NONE', #128, 2.090000000000028280, 0.7853981633974502774 ) ;
#68 = PERSON_AND_ORGANIZATION_ROLE ( 'design_owner' ) ;
#69 = EDGE_LOOP ( 'NONE', ( #91 ) ) ;
#70 = CALENDAR_DATE ( 2021, 2, 12 ) ;
#71 = ADVANCED_FACE ( 'NONE', ( #78 ), #20, .T. ) ;
#72 = PERSON_AND_ORGANIZATION_ROLE ( 'design_supplier' ) ;
#73 = APPLICATION_CONTEXT ( 'configuration controlled 3d designs of mechanical parts and assemblies' ) ;
#74 = AXIS2_PLACEMENT_3D ( 'NONE', #92, #2, #169 ) ;
#75 = DATE_TIME_ROLE ( 'classification_date' ) ;
#76 = EDGE_LOOP ( 'NONE', ( #118 ) ) ;
#77 = DIRECTION ( 'NONE',  ( 0.0000000000000000000, 1.000000000000000000, 0.0000000000000000000 ) ) ;
#78 = FACE_OUTER_BOUND ( 'NONE', #168, .T. ) ;
#79 = CYLINDRICAL_SURFACE ( 'NONE', #197, 2.490000000000029967 ) ;
#80 = ORIENTED_EDGE ( 'NONE', *, *, #22, .T. ) ;
#81 = FACE_OUTER_BOUND ( 'NONE', #166, .T. ) ;
#82 = ORGANIZATION ( 'UNSPECIFIED', 'UNSPECIFIED', '' ) ;
#83 = VERTEX_POINT ( 'NONE', #139 ) ;
#84 = CIRCLE ( 'NONE', #132, 2.000000000000000888 ) ;
#85 = AXIS2_PLACEMENT_3D ( 'NONE', #99, #63, #60 ) ;
#86 = DIRECTION ( 'NONE',  ( -3.491481338843133355E-15, 1.224646799147353207E-16, -1.000000000000000000 ) ) ;
#87 = AXIS2_PLACEMENT_3D ( 'NONE', #93, #212, #4 ) ;
#88 = CARTESIAN_POINT ( 'NONE',  ( 2.793185071074506684E-13, 1.599999999999991207, 80.00000000000000000 ) ) ;
#89 = ADVANCED_FACE ( 'NONE', ( #154, #135 ), #175, .T. ) ;
#90 = CALENDAR_DATE ( 2021, 2, 12 ) ;
#91 = ORIENTED_EDGE ( 'NONE', *, *, #201, .F. ) ;
#92 = CARTESIAN_POINT ( 'NONE',  ( 0.0000000000000000000, 0.0000000000000000000, 0.0000000000000000000 ) ) ;
#93 = CARTESIAN_POINT ( 'NONE',  ( -4.468243860962382341E-31, 1.567248972881662493E-32, -1.279755905109001606E-16 ) ) ;
#94 = DIRECTION ( 'NONE',  ( 0.0000000000000000000, 1.000000000000000000, 0.0000000000000000000 ) ) ;
#95 = EDGE_LOOP ( 'NONE', ( #65 ) ) ;
#96 = LOCAL_TIME ( 13, 56, 58.00000000000000000, #186 ) ;
#97 = APPROVAL ( #147, 'UNSPECIFIED' ) ;
#98 = DIRECTION ( 'NONE',  ( -3.491481338843133355E-15, 1.224646799147353207E-16, -1.000000000000000000 ) ) ;
#99 = CARTESIAN_POINT ( 'NONE',  ( 4.189777606611760026E-14, -1.469576158976823947E-15, 12.00000000000000000 ) ) ;
#100 = ADVANCED_BREP_SHAPE_REPRESENTATION ( '321724', ( #30, #37, #200 ), #234 ) ;
#101 = APPLICATION_PROTOCOL_DEFINITION ( 'international standard', 'config_control_design', 1994, #49 ) ;
#102 = DIRECTION ( 'NONE',  ( -3.491481338843133355E-15, 1.224646799147353207E-16, -1.000000000000000000 ) ) ;
#103 = LOCAL_TIME ( 13, 56, 58.00000000000000000, #241 ) ;
#104 = PRODUCT_DEFINITION ( 'UNKNOWN', '', #57, #25 ) ;
#105 = DIRECTION ( 'NONE',  ( 4.275831445896958607E-31, 1.000000000000000000, 1.224646799147353454E-16 ) ) ;
#106 = ADVANCED_FACE ( 'NONE', ( #232, #56 ), #67, .T. ) ;
#107 = LOCAL_TIME ( 13, 56, 58.00000000000000000, #54 ) ;
#108 = ORIENTED_EDGE ( 'NONE', *, *, #237, .T. ) ;
#109 = PRODUCT_DEFINITION_SHAPE ( 'NONE', 'NONE',  #104 ) ;
#110 = APPROVAL_DATE_TIME ( #129, #97 ) ;
#111 = APPROVAL_ROLE ( '' ) ;
#112 = EDGE_LOOP ( 'NONE', ( #148 ) ) ;
#113 = FACE_OUTER_BOUND ( 'NONE', #240, .T. ) ;
#114 = LOCAL_TIME ( 13, 56, 58.00000000000000000, #140 ) ;
#115 = FACE_OUTER_BOUND ( 'NONE', #214, .T. ) ;
#116 = FACE_OUTER_BOUND ( 'NONE', #184, .T. ) ;
#117 = EDGE_LOOP ( 'NONE', ( #192 ) ) ;
#118 = ORIENTED_EDGE ( 'NONE', *, *, #203, .F. ) ;
#119 = CIRCLE ( 'NONE', #3, 2.490000000000029967 ) ;
#120 = CARTESIAN_POINT ( 'NONE',  ( 4.189777606611760026E-14, 1.867200929414033468E-32, 12.00000000000000000 ) ) ;
#121 = PERSON_AND_ORGANIZATION ( #156, #82 ) ;
#122 = CLOSED_SHELL ( 'NONE', ( #194, #134, #159, #89, #152 ) ) ;
#123 = VERTEX_POINT ( 'NONE', #88 ) ;
#124 = PRODUCT_RELATED_PRODUCT_CATEGORY ( 'detail', '', ( #143 ) ) ;
#125 = CARTESIAN_POINT ( 'NONE',  ( 1.396592535537253342E-15, 2.490000000000029967, 0.3999999999999999667 ) ) ;
#126 = CARTESIAN_POINT ( 'NONE',  ( -8.936487721924764683E-31, 3.134497945763324987E-32, -2.559511810218003211E-16 ) ) ;
#127 = DATE_AND_TIME ( #228, #96 ) ;
#128 = AXIS2_PLACEMENT_3D ( 'NONE', #210, #41, #229 ) ;
#129 = DATE_AND_TIME ( #19, #107 ) ;
#130 = PERSON_AND_ORGANIZATION_ROLE ( 'creator' ) ;
#131 = PLANE ( 'NONE',  #87 ) ;
#132 = AXIS2_PLACEMENT_3D ( 'NONE', #191, #1, #77 ) ;
#133 = DIRECTION ( 'NONE',  ( 3.491481338843133355E-15, -1.224646799147353207E-16, 1.000000000000000000 ) ) ;
#134 = ADVANCED_FACE ( 'NONE', ( #6, #216 ), #14, .T. ) ;
#135 = FACE_BOUND ( 'NONE', #95, .T. ) ;
#136 = DIRECTION ( 'NONE',  ( 0.0000000000000000000, 1.000000000000000000, 0.0000000000000000000 ) ) ;
#137 = APPROVAL_PERSON_ORGANIZATION ( #38, #97, #111 ) ;
#138 = DIRECTION ( 'NONE',  ( 0.0000000000000000000, 1.000000000000000000, 0.0000000000000000000 ) ) ;
#139 = CARTESIAN_POINT ( 'NONE',  ( 4.189777606611760026E-14, 2.490000000000028635, 12.00000000000000000 ) ) ;
#140 = COORDINATED_UNIVERSAL_TIME_OFFSET ( 1, 0, .AHEAD. ) ;
#141 = AXIS2_PLACEMENT_3D ( 'NONE', #230, #174, #138 ) ;
#142 = DATE_AND_TIME ( #70, #164 ) ;
#143 = PRODUCT ( '321724', '321724', '', ( #51 ) ) ;
#144 = SECURITY_CLASSIFICATION_LEVEL ( 'unclassified' ) ;
#145 = APPROVAL_PERSON_ORGANIZATION ( #15, #61, #7 ) ;
#146 = CC_DESIGN_PERSON_AND_ORGANIZATION_ASSIGNMENT ( #163, #68, ( #143 ) ) ;
#147 = APPROVAL_STATUS ( 'not_yet_approved' ) ;
#148 = ORIENTED_EDGE ( 'NONE', *, *, #161, .F. ) ;
#149 = ORIENTED_EDGE ( 'NONE', *, *, #22, .F. ) ;
#150 = FACE_OUTER_BOUND ( 'NONE', #34, .T. ) ;
#151 = CLOSED_SHELL ( 'NONE', ( #36, #71, #183, #106 ) ) ;
#152 = ADVANCED_FACE ( 'NONE', ( #116 ), #195, .F. ) ;
#153 = PLANE ( 'NONE',  #238 ) ;
#154 = FACE_OUTER_BOUND ( 'NONE', #112, .T. ) ;
#155 = DIRECTION ( 'NONE',  ( -4.275831445896958607E-31, -1.000000000000000000, -1.224646799147353207E-16 ) ) ;
#156 = PERSON ( 'UNSPECIFIED', 'UNSPECIFIED', 'UNSPECIFIED', ('UNSPECIFIED'), ('UNSPECIFIED'), ('UNSPECIFIED') ) ;
#157 = DIRECTION ( 'NONE',  ( -3.491481338843133355E-15, 1.224646799147353207E-16, -1.000000000000000000 ) ) ;
#158 = AXIS2_PLACEMENT_3D ( 'NONE', #126, #86, #105 ) ;
#159 = ADVANCED_FACE ( 'NONE', ( #113, #115 ), #188, .T. ) ;
#160 = VERTEX_POINT ( 'NONE', #176 ) ;
#161 = EDGE_CURVE ( 'NONE', #160, #160, #84, .T. ) ;
#162 =( NAMED_UNIT ( * ) SI_UNIT ( $, .STERADIAN. ) SOLID_ANGLE_UNIT ( ) );
#163 = PERSON_AND_ORGANIZATION ( #156, #82 ) ;
#164 = LOCAL_TIME ( 13, 56, 58.00000000000000000, #47 ) ;
#165 = PERSON_AND_ORGANIZATION_ROLE ( 'creator' ) ;
#166 = EDGE_LOOP ( 'NONE', ( #53 ) ) ;
#167 = CC_DESIGN_APPROVAL ( #97, ( #10 ) ) ;
#168 = EDGE_LOOP ( 'NONE', ( #149 ) ) ;
#169 = DIRECTION ( 'NONE',  ( 4.275831445896958607E-31, 1.000000000000000000, 1.224646799147353207E-16 ) ) ;
#170 = DIRECTION ( 'NONE',  ( -3.491481338843133355E-15, 1.224646799147353207E-16, -1.000000000000000000 ) ) ;
#171 = DIRECTION ( 'NONE',  ( 3.491481338843133355E-15, -1.224646799147353207E-16, 1.000000000000000000 ) ) ;
#172 = CIRCLE ( 'NONE', #141, 1.999999999999992228 ) ;
#173 = DIRECTION ( 'NONE',  ( 0.0000000000000000000, 1.000000000000000000, 0.0000000000000000000 ) ) ;
#174 = DIRECTION ( 'NONE',  ( -3.491481338843133355E-15, 1.224646799147353207E-16, -1.000000000000000000 ) ) ;
#175 = CONICAL_SURFACE ( 'NONE', #32, 1.600000000000000977, 0.7853981633974512766 ) ;
#176 = CARTESIAN_POINT ( 'NONE',  ( 2.779219145719134403E-13, 1.999999999999991340, 79.60000000000000853 ) ) ;
#177 = CC_DESIGN_PERSON_AND_ORGANIZATION_ASSIGNMENT ( #207, #72, ( #57 ) ) ;
#178 =( NAMED_UNIT ( * ) PLANE_ANGLE_UNIT ( ) SI_UNIT ( $, .RADIAN. ) );
#179 = CC_DESIGN_APPROVAL ( #61, ( #104 ) ) ;
#180 = CARTESIAN_POINT ( 'NONE',  ( 2.793185071074506684E-13, -9.797174393178826052E-15, 80.00000000000000000 ) ) ;
#181 = APPROVAL_DATE_TIME ( #31, #61 ) ;
#182 = AXIS2_PLACEMENT_3D ( 'NONE', #64, #202, #27 ) ;
#183 = ADVANCED_FACE ( 'NONE', ( #21 ), #131, .T. ) ;
#184 = EDGE_LOOP ( 'NONE', ( #187 ) ) ;
#185 = SHAPE_DEFINITION_REPRESENTATION ( #109, #100 ) ;
#186 = COORDINATED_UNIVERSAL_TIME_OFFSET ( 1, 0, .AHEAD. ) ;
#187 = ORIENTED_EDGE ( 'NONE', *, *, #243, .F. ) ;
#188 = CYLINDRICAL_SURFACE ( 'NONE', #74, 1.999999999999996669 ) ;
#189 = DIRECTION ( 'NONE',  ( 4.275831445896958607E-31, 1.000000000000000000, 1.224646799147352961E-16 ) ) ;
#190 = DIRECTION ( 'NONE',  ( 4.275831445896958607E-31, 1.000000000000000000, 1.224646799147353207E-16 ) ) ;
#191 = CARTESIAN_POINT ( 'NONE',  ( 2.779219145719134403E-13, -9.748188521212932624E-15, 79.60000000000000853 ) ) ;
#192 = ORIENTED_EDGE ( 'NONE', *, *, #203, .T. ) ;
#193 = CIRCLE ( 'NONE', #158, 2.090000000000028280 ) ;
#194 = ADVANCED_FACE ( 'NONE', ( #44 ), #153, .F. ) ;
#195 = PLANE ( 'NONE',  #205 ) ;
#196 = VERTEX_POINT ( 'NONE', #125 ) ;
#197 = AXIS2_PLACEMENT_3D ( 'NONE', #59, #170, #189 ) ;
#198 = CC_DESIGN_DATE_AND_TIME_ASSIGNMENT ( #142, #45, ( #104 ) ) ;
#199 = VERTEX_POINT ( 'NONE', #8 ) ;
#200 = AXIS2_PLACEMENT_3D ( 'NONE', #12, #29, #236 ) ;
#201 = EDGE_CURVE ( 'NONE', #46, #46, #119, .T. ) ;
#202 = DIRECTION ( 'NONE',  ( -3.491481338843133355E-15, 1.224646799147353207E-16, -1.000000000000000000 ) ) ;
#203 = EDGE_CURVE ( 'NONE', #199, #199, #193, .T. ) ;
#204 = APPROVAL_STATUS ( 'not_yet_approved' ) ;
#205 = AXIS2_PLACEMENT_3D ( 'NONE', #24, #157, #190 ) ;
#206 = DATE_AND_TIME ( #90, #103 ) ;
#207 = PERSON_AND_ORGANIZATION ( #156, #82 ) ;
#208 = ORIENTED_EDGE ( 'NONE', *, *, #201, .T. ) ;
#209 = CC_DESIGN_SECURITY_CLASSIFICATION ( #10, ( #57 ) ) ;
#210 = CARTESIAN_POINT ( 'NONE',  ( -8.936487721924764683E-31, 3.134497945763324987E-32, -2.559511810218003211E-16 ) ) ;
#211 = DIRECTION ( 'NONE',  ( -4.275831445896958607E-31, -1.000000000000000000, -1.224646799147353207E-16 ) ) ;
#212 = DIRECTION ( 'NONE',  ( -3.491481338843133355E-15, 1.224646799147353207E-16, -1.000000000000000000 ) ) ;
#213 = UNCERTAINTY_MEASURE_WITH_UNIT (LENGTH_MEASURE( 1.000000000000000082E-05 ), #220, 'distance_accuracy_value', 'NONE');
#214 = EDGE_LOOP ( 'NONE', ( #242 ) ) ;
#215 = APPROVAL_PERSON_ORGANIZATION ( #121, #223, #225 ) ;
#216 = FACE_OUTER_BOUND ( 'NONE', #69, .T. ) ;
#217 = APPLICATION_PROTOCOL_DEFINITION ( 'international standard', 'config_control_design', 1994, #73 ) ;
#218 = PERSON_AND_ORGANIZATION ( #156, #82 ) ;
#219 = AXIS2_PLACEMENT_3D ( 'NONE', #120, #171, #155 ) ;
#220 =( LENGTH_UNIT ( ) NAMED_UNIT ( * ) SI_UNIT ( .MILLI., .METRE. ) );
#221 = APPROVAL_STATUS ( 'not_yet_approved' ) ;
#222 = ORIENTED_EDGE ( 'NONE', *, *, #66, .F. ) ;
#223 = APPROVAL ( #204, 'UNSPECIFIED' ) ;
#224 = CIRCLE ( 'NONE', #85, 2.490000000000029967 ) ;
#225 = APPROVAL_ROLE ( '' ) ;
#226 = PERSON_AND_ORGANIZATION_ROLE ( 'classification_officer' ) ;
#227 = CIRCLE ( 'NONE', #40, 1.600000000000000977 ) ;
#228 = CALENDAR_DATE ( 2021, 2, 12 ) ;
#229 = DIRECTION ( 'NONE',  ( -4.275831445896958607E-31, -1.000000000000000000, -1.224646799147353454E-16 ) ) ;
#230 = CARTESIAN_POINT ( 'NONE',  ( 4.486101337166973121E-14, -1.573512532371872562E-15, 12.84870489570881347 ) ) ;
#231 = DIRECTION ( 'NONE',  ( -3.491481338843133355E-15, 1.224646799147353207E-16, -1.000000000000000000 ) ) ;
#232 = FACE_OUTER_BOUND ( 'NONE', #39, .T. ) ;
#233 = ORIENTED_EDGE ( 'NONE', *, *, #66, .T. ) ;
#234 =( GEOMETRIC_REPRESENTATION_CONTEXT ( 3 ) GLOBAL_UNCERTAINTY_ASSIGNED_CONTEXT ( ( #213 ) ) GLOBAL_UNIT_ASSIGNED_CONTEXT ( ( #220, #178, #162 ) ) REPRESENTATION_CONTEXT ( 'NONE', 'WORKASPACE' ) );
#235 = CARTESIAN_POINT ( 'NONE',  ( 4.189777606611760026E-14, 2.490000000000028635, 12.00000000000000000 ) ) ;
#236 = DIRECTION ( 'NONE',  ( 1.000000000000000000, 0.0000000000000000000, 0.0000000000000000000 ) ) ;
#237 = EDGE_CURVE ( 'NONE', #196, #196, #18, .T. ) ;
#238 = AXIS2_PLACEMENT_3D ( 'NONE', #58, #133, #211 ) ;
#239 = CARTESIAN_POINT ( 'NONE',  ( 4.486101337166973121E-14, 1.999999999999990452, 12.84870489570881347 ) ) ;
#240 = EDGE_LOOP ( 'NONE', ( #222 ) ) ;
#241 = COORDINATED_UNIVERSAL_TIME_OFFSET ( 1, 0, .AHEAD. ) ;
#242 = ORIENTED_EDGE ( 'NONE', *, *, #161, .T. ) ;
#243 = EDGE_CURVE ( 'NONE', #123, #123, #227, .T. ) ;
ENDSEC;
END-ISO-10303-21;
