ISO-10303-21;
HEADER;
FILE_DESCRIPTION (( 'STEP AP203' ),
    '1' );
FILE_NAME ('321723.step',
    '2021-12-02T12:56:57',
    ( '' ),
    ( '' ),
    'SwSTEP 2.0',
    'SolidWorks 2019',
    '' );
FILE_SCHEMA (( 'CONFIG_CONTROL_DESIGN' ));
ENDSEC;

DATA;
#1 = DIRECTION ( 'NONE',  ( 0.0000000000000000000, 0.0000000000000000000, 1.000000000000000000 ) ) ;
#2 = APPROVAL_DATE_TIME ( #52, #156 ) ;
#3 = DATE_TIME_ROLE ( 'classification_date' ) ;
#4 = EDGE_LOOP ( 'NONE', ( #230 ) ) ;
#5 = ORIENTED_EDGE ( 'NONE', *, *, #150, .F. ) ;
#6 = EDGE_LOOP ( 'NONE', ( #234 ) ) ;
#7 = APPLICATION_CONTEXT ( 'configuration controlled 3d designs of mechanical parts and assemblies' ) ;
#8 = AXIS2_PLACEMENT_3D ( 'NONE', #130, #191, #69 ) ;
#9 = DIRECTION ( 'NONE',  ( -3.491481338843133355E-15, 1.224646799147353207E-16, -1.000000000000000000 ) ) ;
#10 = APPROVAL_ROLE ( '' ) ;
#11 = DIRECTION ( 'NONE',  ( 0.0000000000000000000, 1.000000000000000000, 0.0000000000000000000 ) ) ;
#12 = DIRECTION ( 'NONE',  ( 3.491481338843133355E-15, -1.224646799147353207E-16, 1.000000000000000000 ) ) ;
#13 = FACE_BOUND ( 'NONE', #180, .T. ) ;
#14 = DIRECTION ( 'NONE',  ( 0.0000000000000000000, 1.000000000000000000, 0.0000000000000000000 ) ) ;
#15 = CALENDAR_DATE ( 2021, 2, 12 ) ;
#16 = APPROVAL_ROLE ( '' ) ;
#17 =( NAMED_UNIT ( * ) PLANE_ANGLE_UNIT ( ) SI_UNIT ( $, .RADIAN. ) );
#18 = CALENDAR_DATE ( 2021, 2, 12 ) ;
#19 = CALENDAR_DATE ( 2021, 2, 12 ) ;
#20 = ORIENTED_EDGE ( 'NONE', *, *, #46, .T. ) ;
#21 = CIRCLE ( 'NONE', #49, 2.485000000000030074 ) ;
#22 = ORIENTED_EDGE ( 'NONE', *, *, #111, .T. ) ;
#23 = CIRCLE ( 'NONE', #8, 2.000000000000000888 ) ;
#24 = CARTESIAN_POINT ( 'NONE',  ( 4.189777606611760026E-14, 1.863451529957378796E-32, 12.00000000000000000 ) ) ;
#25 = PLANE ( 'NONE',  #131 ) ;
#26 = CARTESIAN_POINT ( 'NONE',  ( 2.793185071074506684E-13, -9.797174393178826052E-15, 80.00000000000000000 ) ) ;
#27 = DIRECTION ( 'NONE',  ( -3.491481338843133355E-15, 1.224646799147353207E-16, -1.000000000000000000 ) ) ;
#28 = DIRECTION ( 'NONE',  ( 4.275831445896958607E-31, 1.000000000000000000, 1.224646799147353207E-16 ) ) ;
#29 = MANIFOLD_SOLID_BREP ( 'Corps-Déplacer/Copier1[2]', #137 ) ;
#30 = CLOSED_SHELL ( 'NONE', ( #195, #143, #160, #91, #140 ) ) ;
#31 = AXIS2_PLACEMENT_3D ( 'NONE', #133, #185, #86 ) ;
#32 = COORDINATED_UNIVERSAL_TIME_OFFSET ( 1, 0, .AHEAD. ) ;
#33 = CC_DESIGN_PERSON_AND_ORGANIZATION_ASSIGNMENT ( #179, #199, ( #201 ) ) ;
#34 =( NAMED_UNIT ( * ) SI_UNIT ( $, .STERADIAN. ) SOLID_ANGLE_UNIT ( ) );
#35 = VERTEX_POINT ( 'NONE', #96 ) ;
#36 = PERSON_AND_ORGANIZATION_ROLE ( 'creator' ) ;
#37 = CONICAL_SURFACE ( 'NONE', #169, 2.085000000000028830, 0.7853981633974504994 ) ;
#38 = EDGE_LOOP ( 'NONE', ( #124 ) ) ;
#39 = EDGE_LOOP ( 'NONE', ( #41 ) ) ;
#40 = LOCAL_TIME ( 13, 56, 57.00000000000000000, #94 ) ;
#41 = ORIENTED_EDGE ( 'NONE', *, *, #218, .T. ) ;
#42 = APPROVAL ( #194, 'UNSPECIFIED' ) ;
#43 = ORIENTED_EDGE ( 'NONE', *, *, #111, .F. ) ;
#44 = DIRECTION ( 'NONE',  ( -3.491481338843133355E-15, 1.224646799147353207E-16, -1.000000000000000000 ) ) ;
#45 = CARTESIAN_POINT ( 'NONE',  ( 4.189777606611760026E-14, -1.469576158976823947E-15, 12.00000000000000000 ) ) ;
#46 = EDGE_CURVE ( 'NONE', #226, #226, #84, .T. ) ;
#47 = CYLINDRICAL_SURFACE ( 'NONE', #182, 2.485000000000030074 ) ;
#48 = CARTESIAN_POINT ( 'NONE',  ( 2.793185071074506684E-13, -9.797174393178826052E-15, 80.00000000000000000 ) ) ;
#49 = AXIS2_PLACEMENT_3D ( 'NONE', #217, #73, #148 ) ;
#50 = DIRECTION ( 'NONE',  ( -3.491481338843133355E-15, 1.224646799147353207E-16, -1.000000000000000000 ) ) ;
#51 = CARTESIAN_POINT ( 'NONE',  ( 0.0000000000000000000, 0.0000000000000000000, 0.0000000000000000000 ) ) ;
#52 = DATE_AND_TIME ( #18, #177 ) ;
#53 = AXIS2_PLACEMENT_3D ( 'NONE', #24, #103, #187 ) ;
#54 = VERTEX_POINT ( 'NONE', #154 ) ;
#55 = MECHANICAL_CONTEXT ( 'NONE', #7, 'mechanical' ) ;
#56 = PRODUCT_DEFINITION ( 'UNKNOWN', '', #201, #132 ) ;
#57 = PERSON_AND_ORGANIZATION ( #65, #102 ) ;
#58 = PERSON_AND_ORGANIZATION ( #65, #102 ) ;
#59 = LOCAL_TIME ( 13, 56, 57.00000000000000000, #32 ) ;
#60 = EDGE_LOOP ( 'NONE', ( #100 ) ) ;
#61 = CC_DESIGN_PERSON_AND_ORGANIZATION_ASSIGNMENT ( #192, #152, ( #122 ) ) ;
#62 = CC_DESIGN_DATE_AND_TIME_ASSIGNMENT ( #98, #3, ( #231 ) ) ;
#63 = ADVANCED_FACE ( 'NONE', ( #90, #222 ), #47, .T. ) ;
#64 = CC_DESIGN_DATE_AND_TIME_ASSIGNMENT ( #243, #175, ( #56 ) ) ;
#65 = PERSON ( 'UNSPECIFIED', 'UNSPECIFIED', 'UNSPECIFIED', ('UNSPECIFIED'), ('UNSPECIFIED'), ('UNSPECIFIED') ) ;
#66 = DIRECTION ( 'NONE',  ( 3.491481338843133355E-15, -1.224646799147353207E-16, 1.000000000000000000 ) ) ;
#67 = DIRECTION ( 'NONE',  ( 0.0000000000000000000, 1.000000000000000000, 0.0000000000000000000 ) ) ;
#68 = CIRCLE ( 'NONE', #198, 2.485000000000030074 ) ;
#69 = DIRECTION ( 'NONE',  ( 0.0000000000000000000, 1.000000000000000000, 0.0000000000000000000 ) ) ;
#70 = CARTESIAN_POINT ( 'NONE',  ( 4.189777606611760026E-14, -1.469576158976823947E-15, 12.00000000000000000 ) ) ;
#71 = COORDINATED_UNIVERSAL_TIME_OFFSET ( 1, 0, .AHEAD. ) ;
#72 = UNCERTAINTY_MEASURE_WITH_UNIT (LENGTH_MEASURE( 1.000000000000000082E-05 ), #155, 'distance_accuracy_value', 'NONE');
#73 = DIRECTION ( 'NONE',  ( -3.491481338843133355E-15, 1.224646799147353207E-16, -1.000000000000000000 ) ) ;
#74 = AXIS2_PLACEMENT_3D ( 'NONE', #219, #168, #240 ) ;
#75 = CALENDAR_DATE ( 2021, 2, 12 ) ;
#76 = ADVANCED_FACE ( 'NONE', ( #129 ), #172, .T. ) ;
#77 = APPROVAL_STATUS ( 'not_yet_approved' ) ;
#78 = DIRECTION ( 'NONE',  ( 1.000000000000000000, 0.0000000000000000000, 0.0000000000000000000 ) ) ;
#79 = VERTEX_POINT ( 'NONE', #197 ) ;
#80 = PERSON_AND_ORGANIZATION ( #65, #102 ) ;
#81 = EDGE_LOOP ( 'NONE', ( #159 ) ) ;
#82 =( GEOMETRIC_REPRESENTATION_CONTEXT ( 3 ) GLOBAL_UNCERTAINTY_ASSIGNED_CONTEXT ( ( #72 ) ) GLOBAL_UNIT_ASSIGNED_CONTEXT ( ( #155, #17, #34 ) ) REPRESENTATION_CONTEXT ( 'NONE', 'WORKASPACE' ) );
#83 = ORIENTED_EDGE ( 'NONE', *, *, #101, .F. ) ;
#84 = CIRCLE ( 'NONE', #99, 2.085000000000028830 ) ;
#85 = DIRECTION ( 'NONE',  ( 4.275831445896958607E-31, 1.000000000000000000, 1.224646799147352961E-16 ) ) ;
#86 = DIRECTION ( 'NONE',  ( 4.275831445896958607E-31, 1.000000000000000000, 1.224646799147353207E-16 ) ) ;
#87 = CARTESIAN_POINT ( 'NONE',  ( 0.0000000000000000000, 0.0000000000000000000, 0.0000000000000000000 ) ) ;
#88 = CONICAL_SURFACE ( 'NONE', #223, 1.600000000000000977, 0.7853981633974512766 ) ;
#89 = FACE_OUTER_BOUND ( 'NONE', #141, .T. ) ;
#90 = FACE_OUTER_BOUND ( 'NONE', #6, .T. ) ;
#91 = ADVANCED_FACE ( 'NONE', ( #188, #13 ), #88, .T. ) ;
#92 = VERTEX_POINT ( 'NONE', #134 ) ;
#93 = APPROVAL_PERSON_ORGANIZATION ( #193, #42, #16 ) ;
#94 = COORDINATED_UNIVERSAL_TIME_OFFSET ( 1, 0, .AHEAD. ) ;
#95 = APPLICATION_PROTOCOL_DEFINITION ( 'international standard', 'config_control_design', 1994, #7 ) ;
#96 = CARTESIAN_POINT ( 'NONE',  ( 4.189777606611760026E-14, 2.485000000000028741, 12.00000000000000000 ) ) ;
#97 = APPROVAL_PERSON_ORGANIZATION ( #151, #156, #178 ) ;
#98 = DATE_AND_TIME ( #19, #106 ) ;
#99 = AXIS2_PLACEMENT_3D ( 'NONE', #161, #27, #85 ) ;
#100 = ORIENTED_EDGE ( 'NONE', *, *, #125, .F. ) ;
#101 = EDGE_CURVE ( 'NONE', #79, #79, #23, .T. ) ;
#102 = ORGANIZATION ( 'UNSPECIFIED', 'UNSPECIFIED', '' ) ;
#103 = DIRECTION ( 'NONE',  ( 3.491481338843133355E-15, -1.224646799147353207E-16, 1.000000000000000000 ) ) ;
#104 = DIRECTION ( 'NONE',  ( -3.491481338843133355E-15, 1.224646799147353207E-16, -1.000000000000000000 ) ) ;
#105 = CARTESIAN_POINT ( 'NONE',  ( 2.793185071074506684E-13, 1.199807826129472128E-32, 80.00000000000000000 ) ) ;
#106 = LOCAL_TIME ( 13, 56, 57.00000000000000000, #138 ) ;
#107 = DIRECTION ( 'NONE',  ( -3.491481338843133355E-15, 1.224646799147353207E-16, -1.000000000000000000 ) ) ;
#108 = CC_DESIGN_PERSON_AND_ORGANIZATION_ASSIGNMENT ( #57, #136, ( #56 ) ) ;
#109 = VERTEX_POINT ( 'NONE', #228 ) ;
#110 = APPLICATION_PROTOCOL_DEFINITION ( 'international standard', 'config_control_design', 1994, #114 ) ;
#111 = EDGE_CURVE ( 'NONE', #54, #54, #118, .T. ) ;
#112 = AXIS2_PLACEMENT_3D ( 'NONE', #105, #44, #28 ) ;
#113 = APPROVAL_DATE_TIME ( #135, #42 ) ;
#114 = APPLICATION_CONTEXT ( 'configuration controlled 3d designs of mechanical parts and assemblies' ) ;
#115 = PRODUCT_RELATED_PRODUCT_CATEGORY ( 'detail', '', ( #122 ) ) ;
#116 = VERTEX_POINT ( 'NONE', #176 ) ;
#117 = MANIFOLD_SOLID_BREP ( 'Corps-Déplacer/Copier1[1]', #30 ) ;
#118 = CIRCLE ( 'NONE', #232, 1.600000000000000977 ) ;
#119 = PERSON_AND_ORGANIZATION_ROLE ( 'classification_officer' ) ;
#120 = ADVANCED_FACE ( 'NONE', ( #220, #205 ), #37, .T. ) ;
#121 = CONICAL_SURFACE ( 'NONE', #163, 2.485000000000030074, 0.5235987755983005920 ) ;
#122 = PRODUCT ( '321723', '321723', '', ( #55 ) ) ;
#123 = ORIENTED_EDGE ( 'NONE', *, *, #46, .F. ) ;
#124 = ORIENTED_EDGE ( 'NONE', *, *, #167, .F. ) ;
#125 = EDGE_CURVE ( 'NONE', #109, #109, #227, .T. ) ;
#126 = CARTESIAN_POINT ( 'NONE',  ( -8.915108564695279968E-31, 3.126999146850016191E-32, -2.553388576222266335E-16 ) ) ;
#127 = CC_DESIGN_SECURITY_CLASSIFICATION ( #231, ( #201 ) ) ;
#128 = FACE_BOUND ( 'NONE', #81, .T. ) ;
#129 = FACE_OUTER_BOUND ( 'NONE', #158, .T. ) ;
#130 = CARTESIAN_POINT ( 'NONE',  ( 2.779219145719134403E-13, -9.748188521212932624E-15, 79.60000000000000853 ) ) ;
#131 = AXIS2_PLACEMENT_3D ( 'NONE', #235, #66, #144 ) ;
#132 = DESIGN_CONTEXT ( 'detailed design', #114, 'design' ) ;
#133 = CARTESIAN_POINT ( 'NONE',  ( 0.0000000000000000000, 0.0000000000000000000, 0.0000000000000000000 ) ) ;
#134 = CARTESIAN_POINT ( 'NONE',  ( 4.189777606611760026E-14, 2.485000000000028741, 12.00000000000000000 ) ) ;
#135 = DATE_AND_TIME ( #75, #40 ) ;
#136 = PERSON_AND_ORGANIZATION_ROLE ( 'creator' ) ;
#137 = CLOSED_SHELL ( 'NONE', ( #63, #181, #76, #120 ) ) ;
#138 = COORDINATED_UNIVERSAL_TIME_OFFSET ( 1, 0, .AHEAD. ) ;
#139 = EDGE_LOOP ( 'NONE', ( #142 ) ) ;
#140 = ADVANCED_FACE ( 'NONE', ( #203 ), #241, .F. ) ;
#141 = EDGE_LOOP ( 'NONE', ( #5 ) ) ;
#142 = ORIENTED_EDGE ( 'NONE', *, *, #150, .T. ) ;
#143 = ADVANCED_FACE ( 'NONE', ( #128, #89 ), #121, .T. ) ;
#144 = DIRECTION ( 'NONE',  ( -4.275831445896958607E-31, -1.000000000000000000, -1.224646799147353207E-16 ) ) ;
#145 = FACE_OUTER_BOUND ( 'NONE', #60, .T. ) ;
#146 = DIRECTION ( 'NONE',  ( -3.491481338843133355E-15, 1.224646799147353207E-16, -1.000000000000000000 ) ) ;
#147 = CARTESIAN_POINT ( 'NONE',  ( -4.457554282347639984E-31, 1.563499573425008096E-32, -1.276694288111133168E-16 ) ) ;
#148 = DIRECTION ( 'NONE',  ( 0.0000000000000000000, 1.000000000000000000, 0.0000000000000000000 ) ) ;
#149 = DIRECTION ( 'NONE',  ( 4.650132662504336457E-31, 1.000000000000000000, 1.308895982879868882E-16 ) ) ;
#150 = EDGE_CURVE ( 'NONE', #92, #92, #21, .T. ) ;
#151 = PERSON_AND_ORGANIZATION ( #65, #102 ) ;
#152 = PERSON_AND_ORGANIZATION_ROLE ( 'design_owner' ) ;
#153 = AXIS2_PLACEMENT_3D ( 'NONE', #147, #204, #189 ) ;
#154 = CARTESIAN_POINT ( 'NONE',  ( 2.793185071074506684E-13, 1.599999999999991207, 80.00000000000000000 ) ) ;
#155 =( LENGTH_UNIT ( ) NAMED_UNIT ( * ) SI_UNIT ( .MILLI., .METRE. ) );
#156 = APPROVAL ( #77, 'UNSPECIFIED' ) ;
#157 = SECURITY_CLASSIFICATION_LEVEL ( 'unclassified' ) ;
#158 = EDGE_LOOP ( 'NONE', ( #20 ) ) ;
#159 = ORIENTED_EDGE ( 'NONE', *, *, #125, .T. ) ;
#160 = ADVANCED_FACE ( 'NONE', ( #145, #208 ), #224, .T. ) ;
#161 = CARTESIAN_POINT ( 'NONE',  ( -8.915108564695279968E-31, 3.126999146850016191E-32, -2.553388576222266335E-16 ) ) ;
#162 = CC_DESIGN_PERSON_AND_ORGANIZATION_ASSIGNMENT ( #58, #119, ( #231 ) ) ;
#163 = AXIS2_PLACEMENT_3D ( 'NONE', #70, #50, #11 ) ;
#164 = FACE_OUTER_BOUND ( 'NONE', #38, .T. ) ;
#165 = DIRECTION ( 'NONE',  ( 0.0000000000000000000, 1.000000000000000000, 0.0000000000000000000 ) ) ;
#166 = APPROVAL_DATE_TIME ( #186, #190 ) ;
#167 = EDGE_CURVE ( 'NONE', #35, #35, #184, .T. ) ;
#168 = DIRECTION ( 'NONE',  ( -3.491481338843133355E-15, 1.224646799147353207E-16, -1.000000000000000000 ) ) ;
#169 = AXIS2_PLACEMENT_3D ( 'NONE', #126, #12, #239 ) ;
#170 = PRODUCT_DEFINITION_SHAPE ( 'NONE', 'NONE',  #56 ) ;
#171 = DIRECTION ( 'NONE',  ( 4.275831445896958607E-31, 1.000000000000000000, 1.224646799147353454E-16 ) ) ;
#172 = PLANE ( 'NONE',  #153 ) ;
#173 = ADVANCED_BREP_SHAPE_REPRESENTATION ( '321723', ( #117, #29, #212 ), #82 ) ;
#174 = AXIS2_PLACEMENT_3D ( 'NONE', #45, #9, #67 ) ;
#175 = DATE_TIME_ROLE ( 'creation_date' ) ;
#176 = CARTESIAN_POINT ( 'NONE',  ( 1.396592535537252553E-15, 2.485000000000030074, 0.3999999999999997446 ) ) ;
#177 = LOCAL_TIME ( 13, 56, 57.00000000000000000, #196 ) ;
#178 = APPROVAL_ROLE ( '' ) ;
#179 = PERSON_AND_ORGANIZATION ( #65, #102 ) ;
#180 = EDGE_LOOP ( 'NONE', ( #22 ) ) ;
#181 = ADVANCED_FACE ( 'NONE', ( #164 ), #25, .T. ) ;
#182 = AXIS2_PLACEMENT_3D ( 'NONE', #87, #104, #171 ) ;
#183 = ORIENTED_EDGE ( 'NONE', *, *, #218, .F. ) ;
#184 = CIRCLE ( 'NONE', #174, 2.485000000000030074 ) ;
#185 = DIRECTION ( 'NONE',  ( -3.491481338843133355E-15, 1.224646799147353207E-16, -1.000000000000000000 ) ) ;
#186 = DATE_AND_TIME ( #221, #209 ) ;
#187 = DIRECTION ( 'NONE',  ( -4.275831445896958607E-31, -1.000000000000000000, -1.224646799147353207E-16 ) ) ;
#188 = FACE_OUTER_BOUND ( 'NONE', #214, .T. ) ;
#189 = DIRECTION ( 'NONE',  ( 4.275831445896958607E-31, 1.000000000000000000, 1.224646799147353207E-16 ) ) ;
#190 = APPROVAL ( #237, 'UNSPECIFIED' ) ;
#191 = DIRECTION ( 'NONE',  ( -3.491481338843133355E-15, 1.224646799147353207E-16, -1.000000000000000000 ) ) ;
#192 = PERSON_AND_ORGANIZATION ( #65, #102 ) ;
#193 = PERSON_AND_ORGANIZATION ( #65, #102 ) ;
#194 = APPROVAL_STATUS ( 'not_yet_approved' ) ;
#195 = ADVANCED_FACE ( 'NONE', ( #236 ), #202, .F. ) ;
#196 = COORDINATED_UNIVERSAL_TIME_OFFSET ( 1, 0, .AHEAD. ) ;
#197 = CARTESIAN_POINT ( 'NONE',  ( 2.779219145719134403E-13, 1.999999999999991340, 79.60000000000000853 ) ) ;
#198 = AXIS2_PLACEMENT_3D ( 'NONE', #225, #211, #149 ) ;
#199 = PERSON_AND_ORGANIZATION_ROLE ( 'design_supplier' ) ;
#200 = EDGE_LOOP ( 'NONE', ( #43 ) ) ;
#201 = PRODUCT_DEFINITION_FORMATION_WITH_SPECIFIED_SOURCE ( 'ANY', '', #122, .NOT_KNOWN. ) ;
#202 = PLANE ( 'NONE',  #53 ) ;
#203 = FACE_OUTER_BOUND ( 'NONE', #200, .T. ) ;
#204 = DIRECTION ( 'NONE',  ( -3.491481338843133355E-15, 1.224646799147353207E-16, -1.000000000000000000 ) ) ;
#205 = FACE_BOUND ( 'NONE', #216, .T. ) ;
#206 = SHAPE_DEFINITION_REPRESENTATION ( #170, #173 ) ;
#207 = CC_DESIGN_PERSON_AND_ORGANIZATION_ASSIGNMENT ( #229, #36, ( #201 ) ) ;
#208 = FACE_OUTER_BOUND ( 'NONE', #4, .T. ) ;
#209 = LOCAL_TIME ( 13, 56, 57.00000000000000000, #71 ) ;
#210 = CARTESIAN_POINT ( 'NONE',  ( 1.710569414459005214E-46, 2.085000000000028830, 0.0000000000000000000 ) ) ;
#211 = DIRECTION ( 'NONE',  ( -3.491481338843133355E-15, 1.224646799147353207E-16, -1.000000000000000000 ) ) ;
#212 = AXIS2_PLACEMENT_3D ( 'NONE', #51, #1, #78 ) ;
#213 = EDGE_LOOP ( 'NONE', ( #183 ) ) ;
#214 = EDGE_LOOP ( 'NONE', ( #83 ) ) ;
#215 = CC_DESIGN_APPROVAL ( #42, ( #201 ) ) ;
#216 = EDGE_LOOP ( 'NONE', ( #123 ) ) ;
#217 = CARTESIAN_POINT ( 'NONE',  ( 4.189777606611760026E-14, -1.469576158976823947E-15, 12.00000000000000000 ) ) ;
#218 = EDGE_CURVE ( 'NONE', #116, #116, #68, .T. ) ;
#219 = CARTESIAN_POINT ( 'NONE',  ( 4.483077625630694985E-14, -1.572451957133147518E-15, 12.84004464167096771 ) ) ;
#220 = FACE_OUTER_BOUND ( 'NONE', #39, .T. ) ;
#221 = CALENDAR_DATE ( 2021, 2, 12 ) ;
#222 = FACE_OUTER_BOUND ( 'NONE', #213, .T. ) ;
#223 = AXIS2_PLACEMENT_3D ( 'NONE', #26, #107, #165 ) ;
#224 = CYLINDRICAL_SURFACE ( 'NONE', #31, 1.999999999999996669 ) ;
#225 = CARTESIAN_POINT ( 'NONE',  ( 1.396592535537251370E-15, -4.898587196589405680E-17, 0.3999999999999994116 ) ) ;
#226 = VERTEX_POINT ( 'NONE', #210 ) ;
#227 = CIRCLE ( 'NONE', #74, 1.999999999999992228 ) ;
#228 = CARTESIAN_POINT ( 'NONE',  ( 4.483077625630694985E-14, 1.999999999999990452, 12.84004464167096771 ) ) ;
#229 = PERSON_AND_ORGANIZATION ( #65, #102 ) ;
#230 = ORIENTED_EDGE ( 'NONE', *, *, #101, .T. ) ;
#231 = SECURITY_CLASSIFICATION ( '', '', #157 ) ;
#232 = AXIS2_PLACEMENT_3D ( 'NONE', #48, #146, #14 ) ;
#233 = APPROVAL_PERSON_ORGANIZATION ( #80, #190, #10 ) ;
#234 = ORIENTED_EDGE ( 'NONE', *, *, #167, .T. ) ;
#235 = CARTESIAN_POINT ( 'NONE',  ( 4.189777606611760026E-14, 1.863451529957378796E-32, 12.00000000000000000 ) ) ;
#236 = FACE_OUTER_BOUND ( 'NONE', #139, .T. ) ;
#237 = APPROVAL_STATUS ( 'not_yet_approved' ) ;
#238 = CC_DESIGN_APPROVAL ( #190, ( #231 ) ) ;
#239 = DIRECTION ( 'NONE',  ( -4.275831445896959482E-31, -1.000000000000000000, -1.224646799147352961E-16 ) ) ;
#240 = DIRECTION ( 'NONE',  ( 0.0000000000000000000, 1.000000000000000000, 0.0000000000000000000 ) ) ;
#241 = PLANE ( 'NONE',  #112 ) ;
#242 = CC_DESIGN_APPROVAL ( #156, ( #56 ) ) ;
#243 = DATE_AND_TIME ( #15, #59 ) ;
ENDSEC;
END-ISO-10303-21;
