ISO-10303-21;
HEADER;
FILE_DESCRIPTION (( 'STEP AP203' ),
    '1' );
FILE_NAME ('321722.step',
    '2021-12-02T12:56:56',
    ( '' ),
    ( '' ),
    'SwSTEP 2.0',
    'SolidWorks 2019',
    '' );
FILE_SCHEMA (( 'CONFIG_CONTROL_DESIGN' ));
ENDSEC;

DATA;
#1 = DIRECTION ( 'NONE',  ( -3.491481338843133355E-15, 1.224646799147353207E-16, -1.000000000000000000 ) ) ;
#2 = CARTESIAN_POINT ( 'NONE',  ( 4.189777606611760026E-14, 1.859702130500724125E-32, 12.00000000000000000 ) ) ;
#3 = DIRECTION ( 'NONE',  ( 3.491481338843133355E-15, -1.224646799147353207E-16, 1.000000000000000000 ) ) ;
#4 = CARTESIAN_POINT ( 'NONE',  ( 0.0000000000000000000, 2.080000000000028937, 0.0000000000000000000 ) ) ;
#5 = LOCAL_TIME ( 13, 56, 56.00000000000000000, #210 ) ;
#6 = ADVANCED_FACE ( 'NONE', ( #78 ), #160, .F. ) ;
#7 = VERTEX_POINT ( 'NONE', #39 ) ;
#8 = ADVANCED_FACE ( 'NONE', ( #149, #70 ), #147, .T. ) ;
#9 = CARTESIAN_POINT ( 'NONE',  ( 0.0000000000000000000, 0.0000000000000000000, 0.0000000000000000000 ) ) ;
#10 = CONICAL_SURFACE ( 'NONE', #46, 1.600000000000000977, 0.7853981633974512766 ) ;
#11 = PERSON_AND_ORGANIZATION ( #242, #215 ) ;
#12 = EDGE_LOOP ( 'NONE', ( #165 ) ) ;
#13 = EDGE_CURVE ( 'NONE', #60, #60, #199, .T. ) ;
#14 = ORIENTED_EDGE ( 'NONE', *, *, #148, .T. ) ;
#15 = AXIS2_PLACEMENT_3D ( 'NONE', #144, #203, #68 ) ;
#16 = CC_DESIGN_APPROVAL ( #194, ( #83 ) ) ;
#17 = FACE_BOUND ( 'NONE', #217, .T. ) ;
#18 = DIRECTION ( 'NONE',  ( -3.491481338843133355E-15, 1.224646799147353207E-16, -1.000000000000000000 ) ) ;
#19 = CARTESIAN_POINT ( 'NONE',  ( 0.0000000000000000000, 0.0000000000000000000, 0.0000000000000000000 ) ) ;
#20 = PRODUCT ( '321722', '321722', '', ( #111 ) ) ;
#21 = DIRECTION ( 'NONE',  ( 0.0000000000000000000, 1.000000000000000000, 0.0000000000000000000 ) ) ;
#22 = FACE_OUTER_BOUND ( 'NONE', #213, .T. ) ;
#23 = DATE_AND_TIME ( #230, #52 ) ;
#24 = EDGE_CURVE ( 'NONE', #76, #76, #184, .T. ) ;
#25 = MANIFOLD_SOLID_BREP ( 'Corps-Déplacer/Copier1[2]', #79 ) ;
#26 = APPROVAL_STATUS ( 'not_yet_approved' ) ;
#27 = PERSON_AND_ORGANIZATION ( #242, #215 ) ;
#28 = CIRCLE ( 'NONE', #177, 2.480000000000030180 ) ;
#29 = EDGE_LOOP ( 'NONE', ( #14 ) ) ;
#30 = AXIS2_PLACEMENT_3D ( 'NONE', #105, #1, #69 ) ;
#31 = DIRECTION ( 'NONE',  ( 0.0000000000000000000, 1.000000000000000000, 0.0000000000000000000 ) ) ;
#32 = DIRECTION ( 'NONE',  ( -3.491481338843133355E-15, 1.224646799147353207E-16, -1.000000000000000000 ) ) ;
#33 = CARTESIAN_POINT ( 'NONE',  ( -4.446864703732899379E-31, 1.559750173968353698E-32, -1.273632671113264976E-16 ) ) ;
#34 = CARTESIAN_POINT ( 'NONE',  ( 0.0000000000000000000, 0.0000000000000000000, 0.0000000000000000000 ) ) ;
#35 = CIRCLE ( 'NONE', #30, 2.480000000000029736 ) ;
#36 = CARTESIAN_POINT ( 'NONE',  ( 4.189777606611760026E-14, 1.859702130500724125E-32, 12.00000000000000000 ) ) ;
#37 = EDGE_CURVE ( 'NONE', #92, #92, #117, .T. ) ;
#38 = DATE_AND_TIME ( #209, #185 ) ;
#39 = CARTESIAN_POINT ( 'NONE',  ( 4.480053914094418112E-14, 1.999999999999990452, 12.83138438763312550 ) ) ;
#40 = CLOSED_SHELL ( 'NONE', ( #221, #186, #8, #234, #6 ) ) ;
#41 = VERTEX_POINT ( 'NONE', #188 ) ;
#42 =( NAMED_UNIT ( * ) SI_UNIT ( $, .STERADIAN. ) SOLID_ANGLE_UNIT ( ) );
#43 = AXIS2_PLACEMENT_3D ( 'NONE', #106, #182, #31 ) ;
#44 = EDGE_LOOP ( 'NONE', ( #163 ) ) ;
#45 = ADVANCED_FACE ( 'NONE', ( #220, #56 ), #90, .T. ) ;
#46 = AXIS2_PLACEMENT_3D ( 'NONE', #233, #93, #212 ) ;
#47 = DATE_AND_TIME ( #65, #121 ) ;
#48 = ORIENTED_EDGE ( 'NONE', *, *, #37, .F. ) ;
#49 = DIRECTION ( 'NONE',  ( -3.491481338843133355E-15, 1.224646799147353207E-16, -1.000000000000000000 ) ) ;
#50 = DIRECTION ( 'NONE',  ( -3.491481338843133355E-15, 1.224646799147353207E-16, -1.000000000000000000 ) ) ;
#51 = AXIS2_PLACEMENT_3D ( 'NONE', #53, #18, #222 ) ;
#52 = LOCAL_TIME ( 13, 56, 56.00000000000000000, #94 ) ;
#53 = CARTESIAN_POINT ( 'NONE',  ( 4.189777606611760026E-14, -1.469576158976823947E-15, 12.00000000000000000 ) ) ;
#54 = DIRECTION ( 'NONE',  ( -4.275831445896958607E-31, -1.000000000000000000, -1.224646799147353207E-16 ) ) ;
#55 = APPROVAL ( #176, 'UNSPECIFIED' ) ;
#56 = FACE_OUTER_BOUND ( 'NONE', #200, .T. ) ;
#57 = APPROVAL_STATUS ( 'not_yet_approved' ) ;
#58 = PRODUCT_RELATED_PRODUCT_CATEGORY ( 'detail', '', ( #20 ) ) ;
#59 = PERSON_AND_ORGANIZATION ( #242, #215 ) ;
#60 = VERTEX_POINT ( 'NONE', #191 ) ;
#61 = DIRECTION ( 'NONE',  ( 1.000000000000000000, 0.0000000000000000000, 0.0000000000000000000 ) ) ;
#62 = VERTEX_POINT ( 'NONE', #157 ) ;
#63 = PERSON_AND_ORGANIZATION_ROLE ( 'classification_officer' ) ;
#64 = ORIENTED_EDGE ( 'NONE', *, *, #172, .T. ) ;
#65 = CALENDAR_DATE ( 2021, 2, 12 ) ;
#66 = EDGE_LOOP ( 'NONE', ( #64 ) ) ;
#67 = FACE_BOUND ( 'NONE', #66, .T. ) ;
#68 = DIRECTION ( 'NONE',  ( 0.0000000000000000000, 1.000000000000000000, 0.0000000000000000000 ) ) ;
#69 = DIRECTION ( 'NONE',  ( 4.659507929969063202E-31, 1.000000000000000000, 1.311534886071159013E-16 ) ) ;
#70 = FACE_OUTER_BOUND ( 'NONE', #95, .T. ) ;
#71 = DIRECTION ( 'NONE',  ( -4.275831445896959482E-31, -1.000000000000000000, -1.224646799147353207E-16 ) ) ;
#72 = AXIS2_PLACEMENT_3D ( 'NONE', #9, #73, #61 ) ;
#73 = DIRECTION ( 'NONE',  ( 0.0000000000000000000, 0.0000000000000000000, 1.000000000000000000 ) ) ;
#74 = CARTESIAN_POINT ( 'NONE',  ( 4.189777606611760026E-14, 2.480000000000028848, 12.00000000000000000 ) ) ;
#75 = APPLICATION_PROTOCOL_DEFINITION ( 'international standard', 'config_control_design', 1994, #214 ) ;
#76 = VERTEX_POINT ( 'NONE', #4 ) ;
#77 = ADVANCED_FACE ( 'NONE', ( #146 ), #126, .T. ) ;
#78 = FACE_OUTER_BOUND ( 'NONE', #124, .T. ) ;
#79 = CLOSED_SHELL ( 'NONE', ( #45, #77, #156, #202 ) ) ;
#80 = PERSON_AND_ORGANIZATION_ROLE ( 'creator' ) ;
#81 = EDGE_LOOP ( 'NONE', ( #96 ) ) ;
#82 = AXIS2_PLACEMENT_3D ( 'NONE', #183, #103, #21 ) ;
#83 = PRODUCT_DEFINITION_FORMATION_WITH_SPECIFIED_SOURCE ( 'ANY', '', #20, .NOT_KNOWN. ) ;
#84 = PLANE ( 'NONE',  #158 ) ;
#85 = DIRECTION ( 'NONE',  ( 0.0000000000000000000, 1.000000000000000000, 0.0000000000000000000 ) ) ;
#86 = DIRECTION ( 'NONE',  ( 4.275831445896958607E-31, 1.000000000000000000, 1.224646799147353207E-16 ) ) ;
#87 = CONICAL_SURFACE ( 'NONE', #82, 2.480000000000030180, 0.5235987755983002589 ) ;
#88 = AXIS2_PLACEMENT_3D ( 'NONE', #34, #49, #204 ) ;
#89 = APPROVAL_PERSON_ORGANIZATION ( #11, #55, #195 ) ;
#90 = CYLINDRICAL_SURFACE ( 'NONE', #88, 2.480000000000029736 ) ;
#91 = CARTESIAN_POINT ( 'NONE',  ( 2.793185071074506684E-13, 1.199807826129472128E-32, 80.00000000000000000 ) ) ;
#92 = VERTEX_POINT ( 'NONE', #133 ) ;
#93 = DIRECTION ( 'NONE',  ( -3.491481338843133355E-15, 1.224646799147353207E-16, -1.000000000000000000 ) ) ;
#94 = COORDINATED_UNIVERSAL_TIME_OFFSET ( 1, 0, .AHEAD. ) ;
#95 = EDGE_LOOP ( 'NONE', ( #197 ) ) ;
#96 = ORIENTED_EDGE ( 'NONE', *, *, #13, .F. ) ;
#97 = CIRCLE ( 'NONE', #134, 1.999999999999992228 ) ;
#98 = EDGE_LOOP ( 'NONE', ( #122 ) ) ;
#99 = CC_DESIGN_SECURITY_CLASSIFICATION ( #190, ( #83 ) ) ;
#100 = CC_DESIGN_PERSON_AND_ORGANIZATION_ASSIGNMENT ( #216, #63, ( #190 ) ) ;
#101 = ORIENTED_EDGE ( 'NONE', *, *, #24, .F. ) ;
#102 = CC_DESIGN_PERSON_AND_ORGANIZATION_ASSIGNMENT ( #164, #162, ( #83 ) ) ;
#103 = DIRECTION ( 'NONE',  ( -3.491481338843133355E-15, 1.224646799147353207E-16, -1.000000000000000000 ) ) ;
#104 = APPROVAL_PERSON_ORGANIZATION ( #135, #125, #228 ) ;
#105 = CARTESIAN_POINT ( 'NONE',  ( 1.396592535537251370E-15, -4.898587196589405680E-17, 0.3999999999999994116 ) ) ;
#106 = CARTESIAN_POINT ( 'NONE',  ( 2.793185071074506684E-13, -9.797174393178826052E-15, 80.00000000000000000 ) ) ;
#107 = EDGE_CURVE ( 'NONE', #174, #174, #28, .T. ) ;
#108 = CARTESIAN_POINT ( 'NONE',  ( 4.480053914094418112E-14, -1.571391381894422868E-15, 12.83138438763312550 ) ) ;
#109 = AXIS2_PLACEMENT_3D ( 'NONE', #225, #227, #187 ) ;
#110 = DIRECTION ( 'NONE',  ( -4.275831445896958607E-31, -1.000000000000000000, -1.224646799147353207E-16 ) ) ;
#111 = MECHANICAL_CONTEXT ( 'NONE', #214, 'mechanical' ) ;
#112 = PERSON_AND_ORGANIZATION_ROLE ( 'design_owner' ) ;
#113 = CC_DESIGN_APPROVAL ( #125, ( #231 ) ) ;
#114 =( NAMED_UNIT ( * ) PLANE_ANGLE_UNIT ( ) SI_UNIT ( $, .RADIAN. ) );
#115 = PERSON_AND_ORGANIZATION ( #242, #215 ) ;
#116 = ADVANCED_BREP_SHAPE_REPRESENTATION ( '321722', ( #181, #25, #72 ), #229 ) ;
#117 = CIRCLE ( 'NONE', #15, 2.000000000000000888 ) ;
#118 = COORDINATED_UNIVERSAL_TIME_OFFSET ( 1, 0, .AHEAD. ) ;
#119 = ORIENTED_EDGE ( 'NONE', *, *, #24, .T. ) ;
#120 = AXIS2_PLACEMENT_3D ( 'NONE', #170, #3, #71 ) ;
#121 = LOCAL_TIME ( 13, 56, 56.00000000000000000, #118 ) ;
#122 = ORIENTED_EDGE ( 'NONE', *, *, #139, .F. ) ;
#123 = APPROVAL_DATE_TIME ( #47, #55 ) ;
#124 = EDGE_LOOP ( 'NONE', ( #240 ) ) ;
#125 = APPROVAL ( #26, 'UNSPECIFIED' ) ;
#126 = PLANE ( 'NONE',  #138 ) ;
#127 = DIRECTION ( 'NONE',  ( 4.275831445896958607E-31, 1.000000000000000000, 1.224646799147353207E-16 ) ) ;
#128 = PLANE ( 'NONE',  #151 ) ;
#129 = DIRECTION ( 'NONE',  ( -3.491481338843133355E-15, 1.224646799147353207E-16, -1.000000000000000000 ) ) ;
#130 = FACE_OUTER_BOUND ( 'NONE', #81, .T. ) ;
#131 = APPROVAL_ROLE ( '' ) ;
#132 = COORDINATED_UNIVERSAL_TIME_OFFSET ( 1, 0, .AHEAD. ) ;
#133 = CARTESIAN_POINT ( 'NONE',  ( 2.779219145719134403E-13, 1.999999999999991340, 79.60000000000000853 ) ) ;
#134 = AXIS2_PLACEMENT_3D ( 'NONE', #108, #169, #180 ) ;
#135 = PERSON_AND_ORGANIZATION ( #242, #215 ) ;
#136 = SHAPE_DEFINITION_REPRESENTATION ( #207, #116 ) ;
#137 = ORIENTED_EDGE ( 'NONE', *, *, #139, .T. ) ;
#138 = AXIS2_PLACEMENT_3D ( 'NONE', #2, #201, #54 ) ;
#139 = EDGE_CURVE ( 'NONE', #7, #7, #97, .T. ) ;
#140 = APPLICATION_CONTEXT ( 'configuration controlled 3d designs of mechanical parts and assemblies' ) ;
#141 = ORIENTED_EDGE ( 'NONE', *, *, #13, .T. ) ;
#142 = COORDINATED_UNIVERSAL_TIME_OFFSET ( 1, 0, .AHEAD. ) ;
#143 = EDGE_LOOP ( 'NONE', ( #119 ) ) ;
#144 = CARTESIAN_POINT ( 'NONE',  ( 2.779219145719134403E-13, -9.748188521212932624E-15, 79.60000000000000853 ) ) ;
#145 = CC_DESIGN_DATE_AND_TIME_ASSIGNMENT ( #235, #236, ( #190 ) ) ;
#146 = FACE_OUTER_BOUND ( 'NONE', #44, .T. ) ;
#147 = CYLINDRICAL_SURFACE ( 'NONE', #241, 1.999999999999996669 ) ;
#148 = EDGE_CURVE ( 'NONE', #41, #41, #35, .T. ) ;
#149 = FACE_OUTER_BOUND ( 'NONE', #98, .T. ) ;
#150 = DATE_TIME_ROLE ( 'creation_date' ) ;
#151 = AXIS2_PLACEMENT_3D ( 'NONE', #33, #129, #179 ) ;
#152 = CC_DESIGN_PERSON_AND_ORGANIZATION_ASSIGNMENT ( #27, #154, ( #231 ) ) ;
#153 = CC_DESIGN_APPROVAL ( #55, ( #190 ) ) ;
#154 = PERSON_AND_ORGANIZATION_ROLE ( 'creator' ) ;
#155 = UNCERTAINTY_MEASURE_WITH_UNIT (LENGTH_MEASURE( 1.000000000000000082E-05 ), #232, 'distance_accuracy_value', 'NONE');
#156 = ADVANCED_FACE ( 'NONE', ( #224 ), #128, .T. ) ;
#157 = CARTESIAN_POINT ( 'NONE',  ( 2.793185071074506684E-13, 1.599999999999991207, 80.00000000000000000 ) ) ;
#158 = AXIS2_PLACEMENT_3D ( 'NONE', #36, #243, #110 ) ;
#159 = SECURITY_CLASSIFICATION_LEVEL ( 'unclassified' ) ;
#160 = PLANE ( 'NONE',  #161 ) ;
#161 = AXIS2_PLACEMENT_3D ( 'NONE', #91, #206, #127 ) ;
#162 = PERSON_AND_ORGANIZATION_ROLE ( 'design_supplier' ) ;
#163 = ORIENTED_EDGE ( 'NONE', *, *, #107, .F. ) ;
#164 = PERSON_AND_ORGANIZATION ( #242, #215 ) ;
#165 = ORIENTED_EDGE ( 'NONE', *, *, #107, .T. ) ;
#166 = FACE_OUTER_BOUND ( 'NONE', #238, .T. ) ;
#167 = CARTESIAN_POINT ( 'NONE',  ( 4.189777606611760026E-14, -1.469576158976823947E-15, 12.00000000000000000 ) ) ;
#168 = CC_DESIGN_PERSON_AND_ORGANIZATION_ASSIGNMENT ( #239, #80, ( #83 ) ) ;
#169 = DIRECTION ( 'NONE',  ( -3.491481338843133355E-15, 1.224646799147353207E-16, -1.000000000000000000 ) ) ;
#170 = CARTESIAN_POINT ( 'NONE',  ( -8.893729407465798757E-31, 3.119500347936707396E-32, -2.547265342226529953E-16 ) ) ;
#171 = FACE_OUTER_BOUND ( 'NONE', #29, .T. ) ;
#172 = EDGE_CURVE ( 'NONE', #62, #62, #198, .T. ) ;
#173 = CALENDAR_DATE ( 2021, 2, 12 ) ;
#174 = VERTEX_POINT ( 'NONE', #74 ) ;
#175 = APPROVAL_DATE_TIME ( #211, #125 ) ;
#176 = APPROVAL_STATUS ( 'not_yet_approved' ) ;
#177 = AXIS2_PLACEMENT_3D ( 'NONE', #167, #32, #85 ) ;
#178 = CC_DESIGN_DATE_AND_TIME_ASSIGNMENT ( #23, #150, ( #231 ) ) ;
#179 = DIRECTION ( 'NONE',  ( 4.275831445896958607E-31, 1.000000000000000000, 1.224646799147353207E-16 ) ) ;
#180 = DIRECTION ( 'NONE',  ( 0.0000000000000000000, 1.000000000000000000, 0.0000000000000000000 ) ) ;
#181 = MANIFOLD_SOLID_BREP ( 'Corps-Déplacer/Copier1[1]', #40 ) ;
#182 = DIRECTION ( 'NONE',  ( -3.491481338843133355E-15, 1.224646799147353207E-16, -1.000000000000000000 ) ) ;
#183 = CARTESIAN_POINT ( 'NONE',  ( 4.189777606611760026E-14, -1.469576158976823947E-15, 12.00000000000000000 ) ) ;
#184 = CIRCLE ( 'NONE', #109, 2.080000000000028937 ) ;
#185 = LOCAL_TIME ( 13, 56, 56.00000000000000000, #132 ) ;
#186 = ADVANCED_FACE ( 'NONE', ( #205, #130 ), #87, .T. ) ;
#187 = DIRECTION ( 'NONE',  ( 4.275831445896959482E-31, 1.000000000000000000, 1.224646799147353207E-16 ) ) ;
#188 = CARTESIAN_POINT ( 'NONE',  ( 1.396592535537252553E-15, 2.480000000000029736, 0.3999999999999997446 ) ) ;
#189 = APPROVAL_DATE_TIME ( #38, #194 ) ;
#190 = SECURITY_CLASSIFICATION ( '', '', #159 ) ;
#191 = CARTESIAN_POINT ( 'NONE',  ( 4.189777606611760026E-14, 2.480000000000028848, 12.00000000000000000 ) ) ;
#192 = APPLICATION_PROTOCOL_DEFINITION ( 'international standard', 'config_control_design', 1994, #140 ) ;
#193 = CONICAL_SURFACE ( 'NONE', #120, 2.080000000000028937, 0.7853981633974500554 ) ;
#194 = APPROVAL ( #57, 'UNSPECIFIED' ) ;
#195 = APPROVAL_ROLE ( '' ) ;
#196 = ORIENTED_EDGE ( 'NONE', *, *, #148, .F. ) ;
#197 = ORIENTED_EDGE ( 'NONE', *, *, #37, .T. ) ;
#198 = CIRCLE ( 'NONE', #43, 1.600000000000000977 ) ;
#199 = CIRCLE ( 'NONE', #51, 2.480000000000030180 ) ;
#200 = EDGE_LOOP ( 'NONE', ( #196 ) ) ;
#201 = DIRECTION ( 'NONE',  ( 3.491481338843133355E-15, -1.224646799147353207E-16, 1.000000000000000000 ) ) ;
#202 = ADVANCED_FACE ( 'NONE', ( #171, #17 ), #193, .T. ) ;
#203 = DIRECTION ( 'NONE',  ( -3.491481338843133355E-15, 1.224646799147353207E-16, -1.000000000000000000 ) ) ;
#204 = DIRECTION ( 'NONE',  ( 4.275831445896958607E-31, 1.000000000000000000, 1.224646799147353207E-16 ) ) ;
#205 = FACE_BOUND ( 'NONE', #219, .T. ) ;
#206 = DIRECTION ( 'NONE',  ( -3.491481338843133355E-15, 1.224646799147353207E-16, -1.000000000000000000 ) ) ;
#207 = PRODUCT_DEFINITION_SHAPE ( 'NONE', 'NONE',  #231 ) ;
#208 = DESIGN_CONTEXT ( 'detailed design', #140, 'design' ) ;
#209 = CALENDAR_DATE ( 2021, 2, 12 ) ;
#210 = COORDINATED_UNIVERSAL_TIME_OFFSET ( 1, 0, .AHEAD. ) ;
#211 = DATE_AND_TIME ( #173, #5 ) ;
#212 = DIRECTION ( 'NONE',  ( 0.0000000000000000000, 1.000000000000000000, 0.0000000000000000000 ) ) ;
#213 = EDGE_LOOP ( 'NONE', ( #48 ) ) ;
#214 = APPLICATION_CONTEXT ( 'configuration controlled 3d designs of mechanical parts and assemblies' ) ;
#215 = ORGANIZATION ( 'UNSPECIFIED', 'UNSPECIFIED', '' ) ;
#216 = PERSON_AND_ORGANIZATION ( #242, #215 ) ;
#217 = EDGE_LOOP ( 'NONE', ( #101 ) ) ;
#218 = LOCAL_TIME ( 13, 56, 56.00000000000000000, #142 ) ;
#219 = EDGE_LOOP ( 'NONE', ( #137 ) ) ;
#220 = FACE_OUTER_BOUND ( 'NONE', #12, .T. ) ;
#221 = ADVANCED_FACE ( 'NONE', ( #166 ), #84, .F. ) ;
#222 = DIRECTION ( 'NONE',  ( 0.0000000000000000000, 1.000000000000000000, 0.0000000000000000000 ) ) ;
#223 = APPROVAL_PERSON_ORGANIZATION ( #59, #194, #131 ) ;
#224 = FACE_OUTER_BOUND ( 'NONE', #143, .T. ) ;
#225 = CARTESIAN_POINT ( 'NONE',  ( -8.893729407465798757E-31, 3.119500347936707396E-32, -2.547265342226529953E-16 ) ) ;
#226 = CC_DESIGN_PERSON_AND_ORGANIZATION_ASSIGNMENT ( #115, #112, ( #20 ) ) ;
#227 = DIRECTION ( 'NONE',  ( -3.491481338843133355E-15, 1.224646799147353207E-16, -1.000000000000000000 ) ) ;
#228 = APPROVAL_ROLE ( '' ) ;
#229 =( GEOMETRIC_REPRESENTATION_CONTEXT ( 3 ) GLOBAL_UNCERTAINTY_ASSIGNED_CONTEXT ( ( #155 ) ) GLOBAL_UNIT_ASSIGNED_CONTEXT ( ( #232, #114, #42 ) ) REPRESENTATION_CONTEXT ( 'NONE', 'WORKASPACE' ) );
#230 = CALENDAR_DATE ( 2021, 2, 12 ) ;
#231 = PRODUCT_DEFINITION ( 'UNKNOWN', '', #83, #208 ) ;
#232 =( LENGTH_UNIT ( ) NAMED_UNIT ( * ) SI_UNIT ( .MILLI., .METRE. ) );
#233 = CARTESIAN_POINT ( 'NONE',  ( 2.793185071074506684E-13, -9.797174393178826052E-15, 80.00000000000000000 ) ) ;
#234 = ADVANCED_FACE ( 'NONE', ( #22, #67 ), #10, .T. ) ;
#235 = DATE_AND_TIME ( #237, #218 ) ;
#236 = DATE_TIME_ROLE ( 'classification_date' ) ;
#237 = CALENDAR_DATE ( 2021, 2, 12 ) ;
#238 = EDGE_LOOP ( 'NONE', ( #141 ) ) ;
#239 = PERSON_AND_ORGANIZATION ( #242, #215 ) ;
#240 = ORIENTED_EDGE ( 'NONE', *, *, #172, .F. ) ;
#241 = AXIS2_PLACEMENT_3D ( 'NONE', #19, #50, #86 ) ;
#242 = PERSON ( 'UNSPECIFIED', 'UNSPECIFIED', 'UNSPECIFIED', ('UNSPECIFIED'), ('UNSPECIFIED'), ('UNSPECIFIED') ) ;
#243 = DIRECTION ( 'NONE',  ( 3.491481338843133355E-15, -1.224646799147353207E-16, 1.000000000000000000 ) ) ;
ENDSEC;
END-ISO-10303-21;
