ISO-10303-21;
HEADER;
FILE_DESCRIPTION (( 'STEP AP203' ),
    '1' );
FILE_NAME ('321721.step',
    '2021-12-02T12:56:56',
    ( '' ),
    ( '' ),
    'SwSTEP 2.0',
    'SolidWorks 2019',
    '' );
FILE_SCHEMA (( 'CONFIG_CONTROL_DESIGN' ));
ENDSEC;

DATA;
#1 = EDGE_LOOP ( 'NONE', ( #239 ) ) ;
#2 = CONICAL_SURFACE ( 'NONE', #41, 2.075000000000028155, 0.7853981633974504994 ) ;
#3 = PERSON_AND_ORGANIZATION ( #95, #135 ) ;
#4 = AXIS2_PLACEMENT_3D ( 'NONE', #124, #231, #234 ) ;
#5 = DIRECTION ( 'NONE',  ( 0.0000000000000000000, 1.000000000000000000, 0.0000000000000000000 ) ) ;
#6 = APPROVAL ( #111, 'UNSPECIFIED' ) ;
#7 = FACE_OUTER_BOUND ( 'NONE', #221, .T. ) ;
#8 = DIRECTION ( 'NONE',  ( -3.491481338843133355E-15, 1.224646799147353207E-16, -1.000000000000000000 ) ) ;
#9 = EDGE_CURVE ( 'NONE', #132, #132, #182, .T. ) ;
#10 = CC_DESIGN_SECURITY_CLASSIFICATION ( #186, ( #35 ) ) ;
#11 = FACE_OUTER_BOUND ( 'NONE', #69, .T. ) ;
#12 = FACE_BOUND ( 'NONE', #190, .T. ) ;
#13 = DATE_AND_TIME ( #205, #139 ) ;
#14 = CARTESIAN_POINT ( 'NONE',  ( 2.793185071074506684E-13, 1.599999999999991207, 80.00000000000000000 ) ) ;
#15 = LOCAL_TIME ( 13, 56, 56.00000000000000000, #170 ) ;
#16 = CC_DESIGN_DATE_AND_TIME_ASSIGNMENT ( #79, #117, ( #186 ) ) ;
#17 = APPROVAL_ROLE ( '' ) ;
#18 = APPROVAL_DATE_TIME ( #189, #116 ) ;
#19 = APPLICATION_PROTOCOL_DEFINITION ( 'international standard', 'config_control_design', 1994, #204 ) ;
#20 = CIRCLE ( 'NONE', #110, 2.075000000000028155 ) ;
#21 = PERSON_AND_ORGANIZATION_ROLE ( 'creator' ) ;
#22 = EDGE_LOOP ( 'NONE', ( #96 ) ) ;
#23 = SECURITY_CLASSIFICATION_LEVEL ( 'unclassified' ) ;
#24 = EDGE_LOOP ( 'NONE', ( #187 ) ) ;
#25 = PERSON_AND_ORGANIZATION ( #95, #135 ) ;
#26 = PLANE ( 'NONE',  #47 ) ;
#27 = CARTESIAN_POINT ( 'NONE',  ( 1.396592535537251370E-15, -4.898587196589405680E-17, 0.3999999999999994116 ) ) ;
#28 = CARTESIAN_POINT ( 'NONE',  ( 4.477030202558140608E-14, -1.570330806655697627E-15, 12.82272413359527974 ) ) ;
#29 = ADVANCED_FACE ( 'NONE', ( #50 ), #26, .T. ) ;
#30 = CARTESIAN_POINT ( 'NONE',  ( 4.189777606611760026E-14, -1.469576158976823947E-15, 12.00000000000000000 ) ) ;
#31 = CONICAL_SURFACE ( 'NONE', #227, 2.475000000000029843, 0.5235987755983000369 ) ;
#32 = CARTESIAN_POINT ( 'NONE',  ( 4.189777606611760026E-14, 1.855952731044069180E-32, 12.00000000000000000 ) ) ;
#33 =( NAMED_UNIT ( * ) SI_UNIT ( $, .STERADIAN. ) SOLID_ANGLE_UNIT ( ) );
#34 = DIRECTION ( 'NONE',  ( 0.0000000000000000000, 0.0000000000000000000, 1.000000000000000000 ) ) ;
#35 = PRODUCT_DEFINITION_FORMATION_WITH_SPECIFIED_SOURCE ( 'ANY', '', #115, .NOT_KNOWN. ) ;
#36 = COORDINATED_UNIVERSAL_TIME_OFFSET ( 1, 0, .AHEAD. ) ;
#37 = EDGE_LOOP ( 'NONE', ( #98 ) ) ;
#38 = CARTESIAN_POINT ( 'NONE',  ( 2.779219145719134403E-13, 1.999999999999991340, 79.60000000000000853 ) ) ;
#39 = PRODUCT_DEFINITION_SHAPE ( 'NONE', 'NONE',  #176 ) ;
#40 = ORIENTED_EDGE ( 'NONE', *, *, #154, .F. ) ;
#41 = AXIS2_PLACEMENT_3D ( 'NONE', #164, #232, #64 ) ;
#42 = CLOSED_SHELL ( 'NONE', ( #161, #173, #112, #75, #193 ) ) ;
#43 = SHAPE_DEFINITION_REPRESENTATION ( #39, #225 ) ;
#44 = EDGE_CURVE ( 'NONE', #145, #145, #207, .T. ) ;
#45 = DIRECTION ( 'NONE',  ( -3.491481338843133355E-15, 1.224646799147353207E-16, -1.000000000000000000 ) ) ;
#46 = DIRECTION ( 'NONE',  ( 0.0000000000000000000, 1.000000000000000000, 0.0000000000000000000 ) ) ;
#47 = AXIS2_PLACEMENT_3D ( 'NONE', #32, #177, #80 ) ;
#48 = LOCAL_TIME ( 13, 56, 56.00000000000000000, #72 ) ;
#49 = DIRECTION ( 'NONE',  ( -3.491481338843133355E-15, 1.224646799147353207E-16, -1.000000000000000000 ) ) ;
#50 = FACE_OUTER_BOUND ( 'NONE', #22, .T. ) ;
#51 = DIRECTION ( 'NONE',  ( 0.0000000000000000000, 1.000000000000000000, 0.0000000000000000000 ) ) ;
#52 = DESIGN_CONTEXT ( 'detailed design', #204, 'design' ) ;
#53 = VERTEX_POINT ( 'NONE', #90 ) ;
#54 = ADVANCED_FACE ( 'NONE', ( #160 ), #183, .T. ) ;
#55 = DATE_TIME_ROLE ( 'creation_date' ) ;
#56 = CARTESIAN_POINT ( 'NONE',  ( 4.189777606611760026E-14, 2.475000000000028511, 12.00000000000000000 ) ) ;
#57 = DATE_AND_TIME ( #226, #48 ) ;
#58 = APPROVAL_STATUS ( 'not_yet_approved' ) ;
#59 = APPROVAL ( #58, 'UNSPECIFIED' ) ;
#60 = DIRECTION ( 'NONE',  ( -3.491481338843133355E-15, 1.224646799147353207E-16, -1.000000000000000000 ) ) ;
#61 = DIRECTION ( 'NONE',  ( 4.275831445896958607E-31, 1.000000000000000000, 1.224646799147353207E-16 ) ) ;
#62 = CLOSED_SHELL ( 'NONE', ( #233, #29, #54, #222 ) ) ;
#63 = CARTESIAN_POINT ( 'NONE',  ( 2.793185071074506684E-13, -9.797174393178826052E-15, 80.00000000000000000 ) ) ;
#64 = DIRECTION ( 'NONE',  ( -4.275831445896958607E-31, -1.000000000000000000, -1.224646799147353207E-16 ) ) ;
#65 = FACE_OUTER_BOUND ( 'NONE', #192, .T. ) ;
#66 = AXIS2_PLACEMENT_3D ( 'NONE', #141, #215, #51 ) ;
#67 = APPROVAL_ROLE ( '' ) ;
#68 = PERSON_AND_ORGANIZATION_ROLE ( 'design_owner' ) ;
#69 = EDGE_LOOP ( 'NONE', ( #77 ) ) ;
#70 = VERTEX_POINT ( 'NONE', #89 ) ;
#71 = ORIENTED_EDGE ( 'NONE', *, *, #44, .F. ) ;
#72 = COORDINATED_UNIVERSAL_TIME_OFFSET ( 1, 0, .AHEAD. ) ;
#73 = COORDINATED_UNIVERSAL_TIME_OFFSET ( 1, 0, .AHEAD. ) ;
#74 = EDGE_LOOP ( 'NONE', ( #131 ) ) ;
#75 = ADVANCED_FACE ( 'NONE', ( #213, #12 ), #99, .T. ) ;
#76 = AXIS2_PLACEMENT_3D ( 'NONE', #92, #108, #5 ) ;
#77 = ORIENTED_EDGE ( 'NONE', *, *, #188, .T. ) ;
#78 = AXIS2_PLACEMENT_3D ( 'NONE', #30, #106, #181 ) ;
#79 = DATE_AND_TIME ( #208, #94 ) ;
#80 = DIRECTION ( 'NONE',  ( -4.275831445896958607E-31, -1.000000000000000000, -1.224646799147353207E-16 ) ) ;
#81 = DIRECTION ( 'NONE',  ( 0.0000000000000000000, 1.000000000000000000, 0.0000000000000000000 ) ) ;
#82 = FACE_OUTER_BOUND ( 'NONE', #1, .T. ) ;
#83 = CIRCLE ( 'NONE', #144, 2.475000000000029843 ) ;
#84 = FACE_BOUND ( 'NONE', #217, .T. ) ;
#85 = CARTESIAN_POINT ( 'NONE',  ( -8.872350250236308788E-31, 3.112001549023396958E-32, -2.541142108230792584E-16 ) ) ;
#86 = CC_DESIGN_DATE_AND_TIME_ASSIGNMENT ( #13, #55, ( #176 ) ) ;
#87 = PERSON_AND_ORGANIZATION ( #95, #135 ) ;
#88 = CIRCLE ( 'NONE', #78, 2.475000000000029843 ) ;
#89 = CARTESIAN_POINT ( 'NONE',  ( 1.396592535537252356E-15, 2.475000000000029843, 0.3999999999999997446 ) ) ;
#90 = CARTESIAN_POINT ( 'NONE',  ( 0.0000000000000000000, 2.075000000000028155, 0.0000000000000000000 ) ) ;
#91 = VERTEX_POINT ( 'NONE', #56 ) ;
#92 = CARTESIAN_POINT ( 'NONE',  ( 2.779219145719134403E-13, -9.748188521212932624E-15, 79.60000000000000853 ) ) ;
#93 = VERTEX_POINT ( 'NONE', #127 ) ;
#94 = LOCAL_TIME ( 13, 56, 56.00000000000000000, #73 ) ;
#95 = PERSON ( 'UNSPECIFIED', 'UNSPECIFIED', 'UNSPECIFIED', ('UNSPECIFIED'), ('UNSPECIFIED'), ('UNSPECIFIED') ) ;
#96 = ORIENTED_EDGE ( 'NONE', *, *, #224, .F. ) ;
#97 = APPROVAL_ROLE ( '' ) ;
#98 = ORIENTED_EDGE ( 'NONE', *, *, #119, .F. ) ;
#99 = CONICAL_SURFACE ( 'NONE', #138, 1.600000000000000977, 0.7853981633974512766 ) ;
#100 = APPROVAL_PERSON_ORGANIZATION ( #87, #116, #67 ) ;
#101 = CC_DESIGN_APPROVAL ( #116, ( #35 ) ) ;
#102 = DIRECTION ( 'NONE',  ( -3.491481338843133355E-15, 1.224646799147353207E-16, -1.000000000000000000 ) ) ;
#103 = DIRECTION ( 'NONE',  ( -3.491481338843133355E-15, 1.224646799147353207E-16, -1.000000000000000000 ) ) ;
#104 = DIRECTION ( 'NONE',  ( 4.275831445896958607E-31, 1.000000000000000000, 1.224646799147353207E-16 ) ) ;
#105 = MANIFOLD_SOLID_BREP ( 'Corps-Déplacer/Copier1[2]', #62 ) ;
#106 = DIRECTION ( 'NONE',  ( -3.491481338843133355E-15, 1.224646799147353207E-16, -1.000000000000000000 ) ) ;
#107 =( GEOMETRIC_REPRESENTATION_CONTEXT ( 3 ) GLOBAL_UNCERTAINTY_ASSIGNED_CONTEXT ( ( #159 ) ) GLOBAL_UNIT_ASSIGNED_CONTEXT ( ( #166, #114, #33 ) ) REPRESENTATION_CONTEXT ( 'NONE', 'WORKASPACE' ) );
#108 = DIRECTION ( 'NONE',  ( -3.491481338843133355E-15, 1.224646799147353207E-16, -1.000000000000000000 ) ) ;
#109 = PERSON_AND_ORGANIZATION_ROLE ( 'creator' ) ;
#110 = AXIS2_PLACEMENT_3D ( 'NONE', #85, #60, #61 ) ;
#111 = APPROVAL_STATUS ( 'not_yet_approved' ) ;
#112 = ADVANCED_FACE ( 'NONE', ( #214, #180 ), #194, .T. ) ;
#113 = CALENDAR_DATE ( 2021, 2, 12 ) ;
#114 =( NAMED_UNIT ( * ) PLANE_ANGLE_UNIT ( ) SI_UNIT ( $, .RADIAN. ) );
#115 = PRODUCT ( '321721', '321721', '', ( #169 ) ) ;
#116 = APPROVAL ( #235, 'UNSPECIFIED' ) ;
#117 = DATE_TIME_ROLE ( 'classification_date' ) ;
#118 = ORIENTED_EDGE ( 'NONE', *, *, #188, .F. ) ;
#119 = EDGE_CURVE ( 'NONE', #202, #202, #185, .T. ) ;
#120 = LOCAL_TIME ( 13, 56, 56.00000000000000000, #36 ) ;
#121 = FACE_OUTER_BOUND ( 'NONE', #24, .T. ) ;
#122 = CARTESIAN_POINT ( 'NONE',  ( 4.189777606611760026E-14, -1.469576158976823947E-15, 12.00000000000000000 ) ) ;
#123 = AXIS2_PLACEMENT_3D ( 'NONE', #203, #34, #238 ) ;
#124 = CARTESIAN_POINT ( 'NONE',  ( 2.793185071074506684E-13, 1.199807826129472128E-32, 80.00000000000000000 ) ) ;
#125 = PLANE ( 'NONE',  #4 ) ;
#126 = DIRECTION ( 'NONE',  ( 4.275831445896958607E-31, 1.000000000000000000, 1.224646799147353207E-16 ) ) ;
#127 = CARTESIAN_POINT ( 'NONE',  ( 4.189777606611760026E-14, 2.475000000000028511, 12.00000000000000000 ) ) ;
#128 = PERSON_AND_ORGANIZATION ( #95, #135 ) ;
#129 = AXIS2_PLACEMENT_3D ( 'NONE', #228, #102, #81 ) ;
#130 = APPROVAL_DATE_TIME ( #216, #6 ) ;
#131 = ORIENTED_EDGE ( 'NONE', *, *, #206, .F. ) ;
#132 = VERTEX_POINT ( 'NONE', #38 ) ;
#133 = CC_DESIGN_PERSON_AND_ORGANIZATION_ASSIGNMENT ( #201, #109, ( #176 ) ) ;
#134 = APPROVAL_DATE_TIME ( #57, #59 ) ;
#135 = ORGANIZATION ( 'UNSPECIFIED', 'UNSPECIFIED', '' ) ;
#136 = CARTESIAN_POINT ( 'NONE',  ( 4.189777606611760026E-14, 1.855952731044069180E-32, 12.00000000000000000 ) ) ;
#137 = FACE_BOUND ( 'NONE', #243, .T. ) ;
#138 = AXIS2_PLACEMENT_3D ( 'NONE', #63, #197, #46 ) ;
#139 = LOCAL_TIME ( 13, 56, 56.00000000000000000, #184 ) ;
#140 = DIRECTION ( 'NONE',  ( -3.491481338843133355E-15, 1.224646799147353207E-16, -1.000000000000000000 ) ) ;
#141 = CARTESIAN_POINT ( 'NONE',  ( 4.189777606611760026E-14, -1.469576158976823947E-15, 12.00000000000000000 ) ) ;
#142 = PERSON_AND_ORGANIZATION ( #95, #135 ) ;
#143 = AXIS2_PLACEMENT_3D ( 'NONE', #230, #140, #104 ) ;
#144 = AXIS2_PLACEMENT_3D ( 'NONE', #27, #103, #179 ) ;
#145 = VERTEX_POINT ( 'NONE', #14 ) ;
#146 = CC_DESIGN_PERSON_AND_ORGANIZATION_ASSIGNMENT ( #3, #220, ( #186 ) ) ;
#147 = CARTESIAN_POINT ( 'NONE',  ( 0.0000000000000000000, 0.0000000000000000000, 0.0000000000000000000 ) ) ;
#148 = DIRECTION ( 'NONE',  ( -3.491481338843133355E-15, 1.224646799147353207E-16, -1.000000000000000000 ) ) ;
#149 = ORIENTED_EDGE ( 'NONE', *, *, #9, .T. ) ;
#150 = APPROVAL_PERSON_ORGANIZATION ( #142, #6, #17 ) ;
#151 = EDGE_LOOP ( 'NONE', ( #153 ) ) ;
#152 = APPROVAL_PERSON_ORGANIZATION ( #25, #59, #97 ) ;
#153 = ORIENTED_EDGE ( 'NONE', *, *, #154, .T. ) ;
#154 = EDGE_CURVE ( 'NONE', #53, #53, #20, .T. ) ;
#155 = PERSON_AND_ORGANIZATION ( #95, #135 ) ;
#156 = PRODUCT_RELATED_PRODUCT_CATEGORY ( 'detail', '', ( #115 ) ) ;
#157 = CC_DESIGN_PERSON_AND_ORGANIZATION_ASSIGNMENT ( #175, #242, ( #35 ) ) ;
#158 = DIRECTION ( 'NONE',  ( 0.0000000000000000000, 1.000000000000000000, 0.0000000000000000000 ) ) ;
#159 = UNCERTAINTY_MEASURE_WITH_UNIT (LENGTH_MEASURE( 1.000000000000000082E-05 ), #166, 'distance_accuracy_value', 'NONE');
#160 = FACE_OUTER_BOUND ( 'NONE', #151, .T. ) ;
#161 = ADVANCED_FACE ( 'NONE', ( #82 ), #165, .F. ) ;
#162 = DIRECTION ( 'NONE',  ( -4.275831445896958607E-31, -1.000000000000000000, -1.224646799147353207E-16 ) ) ;
#163 = CC_DESIGN_APPROVAL ( #59, ( #186 ) ) ;
#164 = CARTESIAN_POINT ( 'NONE',  ( -8.872350250236308788E-31, 3.112001549023396958E-32, -2.541142108230792584E-16 ) ) ;
#165 = PLANE ( 'NONE',  #174 ) ;
#166 =( LENGTH_UNIT ( ) NAMED_UNIT ( * ) SI_UNIT ( .MILLI., .METRE. ) );
#167 = CALENDAR_DATE ( 2021, 2, 12 ) ;
#168 = EDGE_LOOP ( 'NONE', ( #171 ) ) ;
#169 = MECHANICAL_CONTEXT ( 'NONE', #209, 'mechanical' ) ;
#170 = COORDINATED_UNIVERSAL_TIME_OFFSET ( 1, 0, .AHEAD. ) ;
#171 = ORIENTED_EDGE ( 'NONE', *, *, #9, .F. ) ;
#172 = ORIENTED_EDGE ( 'NONE', *, *, #44, .T. ) ;
#173 = ADVANCED_FACE ( 'NONE', ( #137, #210 ), #31, .T. ) ;
#174 = AXIS2_PLACEMENT_3D ( 'NONE', #136, #211, #162 ) ;
#175 = PERSON_AND_ORGANIZATION ( #95, #135 ) ;
#176 = PRODUCT_DEFINITION ( 'UNKNOWN', '', #35, #52 ) ;
#177 = DIRECTION ( 'NONE',  ( 3.491481338843133355E-15, -1.224646799147353207E-16, 1.000000000000000000 ) ) ;
#178 = CIRCLE ( 'NONE', #66, 2.475000000000029843 ) ;
#179 = DIRECTION ( 'NONE',  ( 3.890767564418611225E-31, 1.000000000000000000, 1.314184451497565235E-16 ) ) ;
#180 = FACE_OUTER_BOUND ( 'NONE', #223, .T. ) ;
#181 = DIRECTION ( 'NONE',  ( 0.0000000000000000000, 1.000000000000000000, 0.0000000000000000000 ) ) ;
#182 = CIRCLE ( 'NONE', #76, 2.000000000000000888 ) ;
#183 = PLANE ( 'NONE',  #143 ) ;
#184 = COORDINATED_UNIVERSAL_TIME_OFFSET ( 1, 0, .AHEAD. ) ;
#185 = CIRCLE ( 'NONE', #212, 1.999999999999992228 ) ;
#186 = SECURITY_CLASSIFICATION ( '', '', #23 ) ;
#187 = ORIENTED_EDGE ( 'NONE', *, *, #224, .T. ) ;
#188 = EDGE_CURVE ( 'NONE', #70, #70, #83, .T. ) ;
#189 = DATE_AND_TIME ( #113, #120 ) ;
#190 = EDGE_LOOP ( 'NONE', ( #172 ) ) ;
#191 = MANIFOLD_SOLID_BREP ( 'Corps-Déplacer/Copier1[1]', #42 ) ;
#192 = EDGE_LOOP ( 'NONE', ( #118 ) ) ;
#193 = ADVANCED_FACE ( 'NONE', ( #7 ), #125, .F. ) ;
#194 = CYLINDRICAL_SURFACE ( 'NONE', #199, 1.999999999999996669 ) ;
#195 = DIRECTION ( 'NONE',  ( 0.0000000000000000000, 1.000000000000000000, 0.0000000000000000000 ) ) ;
#196 = CARTESIAN_POINT ( 'NONE',  ( 0.0000000000000000000, 0.0000000000000000000, 0.0000000000000000000 ) ) ;
#197 = DIRECTION ( 'NONE',  ( -3.491481338843133355E-15, 1.224646799147353207E-16, -1.000000000000000000 ) ) ;
#198 = CYLINDRICAL_SURFACE ( 'NONE', #236, 2.475000000000029843 ) ;
#199 = AXIS2_PLACEMENT_3D ( 'NONE', #196, #8, #126 ) ;
#200 = CC_DESIGN_PERSON_AND_ORGANIZATION_ASSIGNMENT ( #155, #21, ( #35 ) ) ;
#201 = PERSON_AND_ORGANIZATION ( #95, #135 ) ;
#202 = VERTEX_POINT ( 'NONE', #240 ) ;
#203 = CARTESIAN_POINT ( 'NONE',  ( 0.0000000000000000000, 0.0000000000000000000, 0.0000000000000000000 ) ) ;
#204 = APPLICATION_CONTEXT ( 'configuration controlled 3d designs of mechanical parts and assemblies' ) ;
#205 = CALENDAR_DATE ( 2021, 2, 12 ) ;
#206 = EDGE_CURVE ( 'NONE', #91, #91, #88, .T. ) ;
#207 = CIRCLE ( 'NONE', #129, 1.600000000000000977 ) ;
#208 = CALENDAR_DATE ( 2021, 2, 12 ) ;
#209 = APPLICATION_CONTEXT ( 'configuration controlled 3d designs of mechanical parts and assemblies' ) ;
#210 = FACE_OUTER_BOUND ( 'NONE', #74, .T. ) ;
#211 = DIRECTION ( 'NONE',  ( 3.491481338843133355E-15, -1.224646799147353207E-16, 1.000000000000000000 ) ) ;
#212 = AXIS2_PLACEMENT_3D ( 'NONE', #28, #45, #158 ) ;
#213 = FACE_OUTER_BOUND ( 'NONE', #168, .T. ) ;
#214 = FACE_OUTER_BOUND ( 'NONE', #37, .T. ) ;
#215 = DIRECTION ( 'NONE',  ( -3.491481338843133355E-15, 1.224646799147353207E-16, -1.000000000000000000 ) ) ;
#216 = DATE_AND_TIME ( #167, #15 ) ;
#217 = EDGE_LOOP ( 'NONE', ( #40 ) ) ;
#218 = CC_DESIGN_APPROVAL ( #6, ( #176 ) ) ;
#219 = APPLICATION_PROTOCOL_DEFINITION ( 'international standard', 'config_control_design', 1994, #209 ) ;
#220 = PERSON_AND_ORGANIZATION_ROLE ( 'classification_officer' ) ;
#221 = EDGE_LOOP ( 'NONE', ( #71 ) ) ;
#222 = ADVANCED_FACE ( 'NONE', ( #11, #84 ), #2, .T. ) ;
#223 = EDGE_LOOP ( 'NONE', ( #149 ) ) ;
#224 = EDGE_CURVE ( 'NONE', #93, #93, #178, .T. ) ;
#225 = ADVANCED_BREP_SHAPE_REPRESENTATION ( '321721', ( #191, #105, #123 ), #107 ) ;
#226 = CALENDAR_DATE ( 2021, 2, 12 ) ;
#227 = AXIS2_PLACEMENT_3D ( 'NONE', #122, #49, #195 ) ;
#228 = CARTESIAN_POINT ( 'NONE',  ( 2.793185071074506684E-13, -9.797174393178826052E-15, 80.00000000000000000 ) ) ;
#229 = CC_DESIGN_PERSON_AND_ORGANIZATION_ASSIGNMENT ( #128, #68, ( #115 ) ) ;
#230 = CARTESIAN_POINT ( 'NONE',  ( -4.436175125118154394E-31, 1.556000774511698479E-32, -1.270571054115396292E-16 ) ) ;
#231 = DIRECTION ( 'NONE',  ( -3.491481338843133355E-15, 1.224646799147353207E-16, -1.000000000000000000 ) ) ;
#232 = DIRECTION ( 'NONE',  ( 3.491481338843133355E-15, -1.224646799147353207E-16, 1.000000000000000000 ) ) ;
#233 = ADVANCED_FACE ( 'NONE', ( #121, #65 ), #198, .T. ) ;
#234 = DIRECTION ( 'NONE',  ( 4.275831445896958607E-31, 1.000000000000000000, 1.224646799147353207E-16 ) ) ;
#235 = APPROVAL_STATUS ( 'not_yet_approved' ) ;
#236 = AXIS2_PLACEMENT_3D ( 'NONE', #147, #148, #237 ) ;
#237 = DIRECTION ( 'NONE',  ( 4.275831445896958607E-31, 1.000000000000000000, 1.224646799147352961E-16 ) ) ;
#238 = DIRECTION ( 'NONE',  ( 1.000000000000000000, 0.0000000000000000000, 0.0000000000000000000 ) ) ;
#239 = ORIENTED_EDGE ( 'NONE', *, *, #206, .T. ) ;
#240 = CARTESIAN_POINT ( 'NONE',  ( 4.477030202558140608E-14, 1.999999999999990452, 12.82272413359527974 ) ) ;
#241 = ORIENTED_EDGE ( 'NONE', *, *, #119, .T. ) ;
#242 = PERSON_AND_ORGANIZATION_ROLE ( 'design_supplier' ) ;
#243 = EDGE_LOOP ( 'NONE', ( #241 ) ) ;
ENDSEC;
END-ISO-10303-21;
