ISO-10303-21;
HEADER;
FILE_DESCRIPTION (( 'STEP AP203' ),
    '1' );
FILE_NAME ('321720.step',
    '2021-12-02T12:56:55',
    ( '' ),
    ( '' ),
    'SwSTEP 2.0',
    'SolidWorks 2019',
    '' );
FILE_SCHEMA (( 'CONFIG_CONTROL_DESIGN' ));
ENDSEC;

DATA;
#1 = AXIS2_PLACEMENT_3D ( 'NONE', #232, #215, #82 ) ;
#2 = APPROVAL_STATUS ( 'not_yet_approved' ) ;
#3 = ORIENTED_EDGE ( 'NONE', *, *, #228, .T. ) ;
#4 = EDGE_LOOP ( 'NONE', ( #173 ) ) ;
#5 = CARTESIAN_POINT ( 'NONE',  ( 2.793185071074506684E-13, -9.797174393178826052E-15, 80.00000000000000000 ) ) ;
#6 = DIRECTION ( 'NONE',  ( -3.491481338843133355E-15, 1.224646799147353207E-16, -1.000000000000000000 ) ) ;
#7 = CC_DESIGN_PERSON_AND_ORGANIZATION_ASSIGNMENT ( #71, #205, ( #48 ) ) ;
#8 = DIRECTION ( 'NONE',  ( 0.0000000000000000000, 1.000000000000000000, 0.0000000000000000000 ) ) ;
#9 = CARTESIAN_POINT ( 'NONE',  ( 4.189777606611760026E-14, 2.470000000000028617, 12.00000000000000000 ) ) ;
#10 = ADVANCED_FACE ( 'NONE', ( #151, #40 ), #101, .T. ) ;
#11 = DIRECTION ( 'NONE',  ( -4.275831445896958607E-31, -1.000000000000000000, -1.224646799147353207E-16 ) ) ;
#12 = CIRCLE ( 'NONE', #1, 2.470000000000029949 ) ;
#13 = APPLICATION_PROTOCOL_DEFINITION ( 'international standard', 'config_control_design', 1994, #64 ) ;
#14 = CALENDAR_DATE ( 2021, 2, 12 ) ;
#15 = AXIS2_PLACEMENT_3D ( 'NONE', #216, #104, #140 ) ;
#16 = EDGE_CURVE ( 'NONE', #61, #61, #135, .T. ) ;
#17 = COORDINATED_UNIVERSAL_TIME_OFFSET ( 1, 0, .AHEAD. ) ;
#18 = PRODUCT ( '321720', '321720', '', ( #127 ) ) ;
#19 = ORIENTED_EDGE ( 'NONE', *, *, #211, .T. ) ;
#20 = CIRCLE ( 'NONE', #83, 2.070000000000028262 ) ;
#21 = EDGE_LOOP ( 'NONE', ( #93 ) ) ;
#22 = ORIENTED_EDGE ( 'NONE', *, *, #50, .F. ) ;
#23 = EDGE_LOOP ( 'NONE', ( #136 ) ) ;
#24 = FACE_OUTER_BOUND ( 'NONE', #4, .T. ) ;
#25 = CARTESIAN_POINT ( 'NONE',  ( 4.189777606611760026E-14, 1.852203331587414508E-32, 12.00000000000000000 ) ) ;
#26 = AXIS2_PLACEMENT_3D ( 'NONE', #79, #39, #96 ) ;
#27 = CARTESIAN_POINT ( 'NONE',  ( 2.793185071074506684E-13, 1.199807826129472128E-32, 80.00000000000000000 ) ) ;
#28 = CARTESIAN_POINT ( 'NONE',  ( 4.189777606611760026E-14, 2.470000000000028617, 12.00000000000000000 ) ) ;
#29 = CC_DESIGN_DATE_AND_TIME_ASSIGNMENT ( #206, #240, ( #88 ) ) ;
#30 = DIRECTION ( 'NONE',  ( 4.275831445896958607E-31, 1.000000000000000000, 1.224646799147353207E-16 ) ) ;
#31 = PERSON_AND_ORGANIZATION ( #170, #53 ) ;
#32 = CARTESIAN_POINT ( 'NONE',  ( 1.396592535537253934E-15, 2.470000000000029949, 0.4000000000000001887 ) ) ;
#33 = COORDINATED_UNIVERSAL_TIME_OFFSET ( 1, 0, .AHEAD. ) ;
#34 = APPROVAL_DATE_TIME ( #239, #175 ) ;
#35 = CONICAL_SURFACE ( 'NONE', #66, 2.070000000000028262, 0.7853981633974500554 ) ;
#36 = DATE_AND_TIME ( #14, #126 ) ;
#37 = PERSON_AND_ORGANIZATION ( #170, #53 ) ;
#38 = EDGE_LOOP ( 'NONE', ( #57 ) ) ;
#39 = DIRECTION ( 'NONE',  ( -3.491481338843133355E-15, 1.224646799147353207E-16, -1.000000000000000000 ) ) ;
#40 = FACE_BOUND ( 'NONE', #133, .T. ) ;
#41 = FACE_OUTER_BOUND ( 'NONE', #191, .T. ) ;
#42 = APPROVAL ( #208, 'UNSPECIFIED' ) ;
#43 = VERTEX_POINT ( 'NONE', #28 ) ;
#44 = DIRECTION ( 'NONE',  ( -3.491481338843133355E-15, 1.224646799147353207E-16, -1.000000000000000000 ) ) ;
#45 = APPROVAL_PERSON_ORGANIZATION ( #220, #175, #167 ) ;
#46 = DIRECTION ( 'NONE',  ( -3.491481338843133355E-15, 1.224646799147353207E-16, -1.000000000000000000 ) ) ;
#47 = CARTESIAN_POINT ( 'NONE',  ( -4.425485546503412037E-31, 1.552251375055043808E-32, -1.267509437117527854E-16 ) ) ;
#48 = SECURITY_CLASSIFICATION ( '', '', #51 ) ;
#49 = ADVANCED_BREP_SHAPE_REPRESENTATION ( '321720', ( #102, #94, #165 ), #172 ) ;
#50 = EDGE_CURVE ( 'NONE', #142, #142, #153, .T. ) ;
#51 = SECURITY_CLASSIFICATION_LEVEL ( 'unclassified' ) ;
#52 = PERSON_AND_ORGANIZATION_ROLE ( 'creator' ) ;
#53 = ORGANIZATION ( 'UNSPECIFIED', 'UNSPECIFIED', '' ) ;
#54 = CALENDAR_DATE ( 2021, 2, 12 ) ;
#55 = CARTESIAN_POINT ( 'NONE',  ( 2.793185071074506684E-13, -9.797174393178826052E-15, 80.00000000000000000 ) ) ;
#56 = AXIS2_PLACEMENT_3D ( 'NONE', #144, #44, #181 ) ;
#57 = ORIENTED_EDGE ( 'NONE', *, *, #211, .F. ) ;
#58 = APPROVAL ( #2, 'UNSPECIFIED' ) ;
#59 = EDGE_LOOP ( 'NONE', ( #117 ) ) ;
#60 = UNCERTAINTY_MEASURE_WITH_UNIT (LENGTH_MEASURE( 1.000000000000000082E-05 ), #185, 'distance_accuracy_value', 'NONE');
#61 = VERTEX_POINT ( 'NONE', #65 ) ;
#62 = PRODUCT_RELATED_PRODUCT_CATEGORY ( 'detail', '', ( #18 ) ) ;
#63 = DIRECTION ( 'NONE',  ( -3.491481338843133355E-15, 1.224646799147353207E-16, -1.000000000000000000 ) ) ;
#64 = APPLICATION_CONTEXT ( 'configuration controlled 3d designs of mechanical parts and assemblies' ) ;
#65 = CARTESIAN_POINT ( 'NONE',  ( 2.779219145719134403E-13, 1.999999999999991340, 79.60000000000000853 ) ) ;
#66 = AXIS2_PLACEMENT_3D ( 'NONE', #86, #68, #231 ) ;
#67 = CIRCLE ( 'NONE', #241, 1.600000000000000977 ) ;
#68 = DIRECTION ( 'NONE',  ( 3.491481338843133355E-15, -1.224646799147353207E-16, 1.000000000000000000 ) ) ;
#69 = COORDINATED_UNIVERSAL_TIME_OFFSET ( 1, 0, .AHEAD. ) ;
#70 = PERSON_AND_ORGANIZATION ( #170, #53 ) ;
#71 = PERSON_AND_ORGANIZATION ( #170, #53 ) ;
#72 = CONICAL_SURFACE ( 'NONE', #56, 2.470000000000029949, 0.5235987755982998149 ) ;
#73 = DIRECTION ( 'NONE',  ( 1.000000000000000000, 0.0000000000000000000, 0.0000000000000000000 ) ) ;
#74 =( NAMED_UNIT ( * ) PLANE_ANGLE_UNIT ( ) SI_UNIT ( $, .RADIAN. ) );
#75 = CLOSED_SHELL ( 'NONE', ( #147, #233, #163, #111 ) ) ;
#76 = ORIENTED_EDGE ( 'NONE', *, *, #16, .F. ) ;
#77 = PRODUCT_DEFINITION_SHAPE ( 'NONE', 'NONE',  #88 ) ;
#78 = CC_DESIGN_DATE_AND_TIME_ASSIGNMENT ( #92, #90, ( #48 ) ) ;
#79 = CARTESIAN_POINT ( 'NONE',  ( 2.779219145719134403E-13, -9.748188521212932624E-15, 79.60000000000000853 ) ) ;
#80 = CARTESIAN_POINT ( 'NONE',  ( 4.474006491021863103E-14, -1.569270231416972780E-15, 12.81406387955743575 ) ) ;
#81 = EDGE_LOOP ( 'NONE', ( #76 ) ) ;
#82 = DIRECTION ( 'NONE',  ( 0.0000000000000000000, 1.000000000000000000, 0.0000000000000000000 ) ) ;
#83 = AXIS2_PLACEMENT_3D ( 'NONE', #166, #180, #30 ) ;
#84 = DIRECTION ( 'NONE',  ( -3.491481338843133355E-15, 1.224646799147353207E-16, -1.000000000000000000 ) ) ;
#85 = CARTESIAN_POINT ( 'NONE',  ( 4.189777606611760026E-14, 1.852203331587414508E-32, 12.00000000000000000 ) ) ;
#86 = CARTESIAN_POINT ( 'NONE',  ( -8.850971093006824074E-31, 3.104502750110087616E-32, -2.535018874235055708E-16 ) ) ;
#87 = CYLINDRICAL_SURFACE ( 'NONE', #213, 2.470000000000029949 ) ;
#88 = PRODUCT_DEFINITION ( 'UNKNOWN', '', #143, #161 ) ;
#89 = PERSON_AND_ORGANIZATION_ROLE ( 'creator' ) ;
#90 = DATE_TIME_ROLE ( 'classification_date' ) ;
#91 = PERSON_AND_ORGANIZATION ( #170, #53 ) ;
#92 = DATE_AND_TIME ( #187, #189 ) ;
#93 = ORIENTED_EDGE ( 'NONE', *, *, #226, .T. ) ;
#94 = MANIFOLD_SOLID_BREP ( 'Corps-Déplacer/Copier1[2]', #75 ) ;
#95 = ORIENTED_EDGE ( 'NONE', *, *, #50, .T. ) ;
#96 = DIRECTION ( 'NONE',  ( 0.0000000000000000000, 1.000000000000000000, 0.0000000000000000000 ) ) ;
#97 = LOCAL_TIME ( 13, 56, 55.00000000000000000, #192 ) ;
#98 = EDGE_LOOP ( 'NONE', ( #229 ) ) ;
#99 = CARTESIAN_POINT ( 'NONE',  ( 0.0000000000000000000, 0.0000000000000000000, 0.0000000000000000000 ) ) ;
#100 = PLANE ( 'NONE',  #110 ) ;
#101 = CONICAL_SURFACE ( 'NONE', #123, 1.600000000000000977, 0.7853981633974512766 ) ;
#102 = MANIFOLD_SOLID_BREP ( 'Corps-Déplacer/Copier1[1]', #227 ) ;
#103 = DIRECTION ( 'NONE',  ( 4.275831445896958607E-31, 1.000000000000000000, 1.224646799147353207E-16 ) ) ;
#104 = DIRECTION ( 'NONE',  ( -3.491481338843133355E-15, 1.224646799147353207E-16, -1.000000000000000000 ) ) ;
#105 = CARTESIAN_POINT ( 'NONE',  ( 0.0000000000000000000, 0.0000000000000000000, 0.0000000000000000000 ) ) ;
#106 = AXIS2_PLACEMENT_3D ( 'NONE', #80, #155, #119 ) ;
#107 = VERTEX_POINT ( 'NONE', #146 ) ;
#108 = DIRECTION ( 'NONE',  ( 0.0000000000000000000, 0.0000000000000000000, 1.000000000000000000 ) ) ;
#109 = CARTESIAN_POINT ( 'NONE',  ( 1.710569414459005214E-46, 2.070000000000028262, 0.0000000000000000000 ) ) ;
#110 = AXIS2_PLACEMENT_3D ( 'NONE', #85, #157, #11 ) ;
#111 = ADVANCED_FACE ( 'NONE', ( #209, #234 ), #35, .T. ) ;
#112 = APPLICATION_CONTEXT ( 'configuration controlled 3d designs of mechanical parts and assemblies' ) ;
#113 = PERSON_AND_ORGANIZATION_ROLE ( 'design_supplier' ) ;
#114 = SHAPE_DEFINITION_REPRESENTATION ( #77, #49 ) ;
#115 = ORIENTED_EDGE ( 'NONE', *, *, #16, .T. ) ;
#116 = CC_DESIGN_PERSON_AND_ORGANIZATION_ASSIGNMENT ( #168, #113, ( #143 ) ) ;
#117 = ORIENTED_EDGE ( 'NONE', *, *, #226, .F. ) ;
#118 = CC_DESIGN_PERSON_AND_ORGANIZATION_ASSIGNMENT ( #70, #52, ( #88 ) ) ;
#119 = DIRECTION ( 'NONE',  ( 0.0000000000000000000, 1.000000000000000000, 0.0000000000000000000 ) ) ;
#120 = FACE_OUTER_BOUND ( 'NONE', #188, .T. ) ;
#121 = FACE_OUTER_BOUND ( 'NONE', #156, .T. ) ;
#122 = FACE_OUTER_BOUND ( 'NONE', #98, .T. ) ;
#123 = AXIS2_PLACEMENT_3D ( 'NONE', #55, #174, #212 ) ;
#124 = FACE_OUTER_BOUND ( 'NONE', #134, .T. ) ;
#125 = DIRECTION ( 'NONE',  ( 4.275831445896958607E-31, 1.000000000000000000, 1.224646799147353207E-16 ) ) ;
#126 = LOCAL_TIME ( 13, 56, 55.00000000000000000, #17 ) ;
#127 = MECHANICAL_CONTEXT ( 'NONE', #64, 'mechanical' ) ;
#128 = APPROVAL_STATUS ( 'not_yet_approved' ) ;
#129 = CC_DESIGN_SECURITY_CLASSIFICATION ( #48, ( #143 ) ) ;
#130 =( NAMED_UNIT ( * ) SI_UNIT ( $, .STERADIAN. ) SOLID_ANGLE_UNIT ( ) );
#131 = DATE_AND_TIME ( #54, #97 ) ;
#132 = EDGE_CURVE ( 'NONE', #43, #43, #218, .T. ) ;
#133 = EDGE_LOOP ( 'NONE', ( #3 ) ) ;
#134 = EDGE_LOOP ( 'NONE', ( #190 ) ) ;
#135 = CIRCLE ( 'NONE', #26, 2.000000000000000888 ) ;
#136 = ORIENTED_EDGE ( 'NONE', *, *, #178, .F. ) ;
#137 = ORIENTED_EDGE ( 'NONE', *, *, #132, .T. ) ;
#138 = DIRECTION ( 'NONE',  ( 3.898643612119863491E-31, 1.000000000000000000, 1.316844743909503583E-16 ) ) ;
#139 = AXIS2_PLACEMENT_3D ( 'NONE', #99, #196, #162 ) ;
#140 = DIRECTION ( 'NONE',  ( 0.0000000000000000000, 1.000000000000000000, 0.0000000000000000000 ) ) ;
#141 = DIRECTION ( 'NONE',  ( 3.491481338843133355E-15, -1.224646799147353207E-16, 1.000000000000000000 ) ) ;
#142 = VERTEX_POINT ( 'NONE', #199 ) ;
#143 = PRODUCT_DEFINITION_FORMATION_WITH_SPECIFIED_SOURCE ( 'ANY', '', #18, .NOT_KNOWN. ) ;
#144 = CARTESIAN_POINT ( 'NONE',  ( 4.189777606611760026E-14, -1.469576158976823947E-15, 12.00000000000000000 ) ) ;
#145 = APPROVAL_ROLE ( '' ) ;
#146 = CARTESIAN_POINT ( 'NONE',  ( 2.793185071074506684E-13, 1.599999999999991207, 80.00000000000000000 ) ) ;
#147 = ADVANCED_FACE ( 'NONE', ( #24, #214 ), #87, .T. ) ;
#148 = CALENDAR_DATE ( 2021, 2, 12 ) ;
#149 = VERTEX_POINT ( 'NONE', #32 ) ;
#150 = AXIS2_PLACEMENT_3D ( 'NONE', #47, #63, #235 ) ;
#151 = FACE_OUTER_BOUND ( 'NONE', #81, .T. ) ;
#152 = APPROVAL_DATE_TIME ( #131, #58 ) ;
#153 = CIRCLE ( 'NONE', #106, 1.999999999999992228 ) ;
#154 = ADVANCED_FACE ( 'NONE', ( #121 ), #200, .F. ) ;
#155 = DIRECTION ( 'NONE',  ( -3.491481338843133355E-15, 1.224646799147353207E-16, -1.000000000000000000 ) ) ;
#156 = EDGE_LOOP ( 'NONE', ( #137 ) ) ;
#157 = DIRECTION ( 'NONE',  ( 3.491481338843133355E-15, -1.224646799147353207E-16, 1.000000000000000000 ) ) ;
#158 = LOCAL_TIME ( 13, 56, 55.00000000000000000, #224 ) ;
#159 = CC_DESIGN_PERSON_AND_ORGANIZATION_ASSIGNMENT ( #91, #171, ( #18 ) ) ;
#160 = FACE_OUTER_BOUND ( 'NONE', #243, .T. ) ;
#161 = DESIGN_CONTEXT ( 'detailed design', #112, 'design' ) ;
#162 = DIRECTION ( 'NONE',  ( 4.275831445896958607E-31, 1.000000000000000000, 1.224646799147353207E-16 ) ) ;
#163 = ADVANCED_FACE ( 'NONE', ( #160 ), #217, .T. ) ;
#164 = DIRECTION ( 'NONE',  ( -4.275831445896958607E-31, -1.000000000000000000, -1.224646799147353207E-16 ) ) ;
#165 = AXIS2_PLACEMENT_3D ( 'NONE', #183, #108, #73 ) ;
#166 = CARTESIAN_POINT ( 'NONE',  ( -8.850971093006824074E-31, 3.104502750110087616E-32, -2.535018874235055708E-16 ) ) ;
#167 = APPROVAL_ROLE ( '' ) ;
#168 = PERSON_AND_ORGANIZATION ( #170, #53 ) ;
#169 = AXIS2_PLACEMENT_3D ( 'NONE', #25, #141, #164 ) ;
#170 = PERSON ( 'UNSPECIFIED', 'UNSPECIFIED', 'UNSPECIFIED', ('UNSPECIFIED'), ('UNSPECIFIED'), ('UNSPECIFIED') ) ;
#171 = PERSON_AND_ORGANIZATION_ROLE ( 'design_owner' ) ;
#172 =( GEOMETRIC_REPRESENTATION_CONTEXT ( 3 ) GLOBAL_UNCERTAINTY_ASSIGNED_CONTEXT ( ( #60 ) ) GLOBAL_UNIT_ASSIGNED_CONTEXT ( ( #185, #74, #130 ) ) REPRESENTATION_CONTEXT ( 'NONE', 'WORKASPACE' ) );
#173 = ORIENTED_EDGE ( 'NONE', *, *, #178, .T. ) ;
#174 = DIRECTION ( 'NONE',  ( -3.491481338843133355E-15, 1.224646799147353207E-16, -1.000000000000000000 ) ) ;
#175 = APPROVAL ( #128, 'UNSPECIFIED' ) ;
#176 = APPROVAL_PERSON_ORGANIZATION ( #31, #42, #145 ) ;
#177 = CARTESIAN_POINT ( 'NONE',  ( 1.396592535537252948E-15, -4.898587196589411226E-17, 0.3999999999999998557 ) ) ;
#178 = EDGE_CURVE ( 'NONE', #179, #179, #12, .T. ) ;
#179 = VERTEX_POINT ( 'NONE', #9 ) ;
#180 = DIRECTION ( 'NONE',  ( -3.491481338843133355E-15, 1.224646799147353207E-16, -1.000000000000000000 ) ) ;
#181 = DIRECTION ( 'NONE',  ( 0.0000000000000000000, 1.000000000000000000, 0.0000000000000000000 ) ) ;
#182 = FACE_OUTER_BOUND ( 'NONE', #23, .T. ) ;
#183 = CARTESIAN_POINT ( 'NONE',  ( 0.0000000000000000000, 0.0000000000000000000, 0.0000000000000000000 ) ) ;
#184 = PERSON_AND_ORGANIZATION ( #170, #53 ) ;
#185 =( LENGTH_UNIT ( ) NAMED_UNIT ( * ) SI_UNIT ( .MILLI., .METRE. ) );
#186 = ADVANCED_FACE ( 'NONE', ( #237, #124 ), #72, .T. ) ;
#187 = CALENDAR_DATE ( 2021, 2, 12 ) ;
#188 = EDGE_LOOP ( 'NONE', ( #115 ) ) ;
#189 = LOCAL_TIME ( 13, 56, 55.00000000000000000, #33 ) ;
#190 = ORIENTED_EDGE ( 'NONE', *, *, #132, .F. ) ;
#191 = EDGE_LOOP ( 'NONE', ( #22 ) ) ;
#192 = COORDINATED_UNIVERSAL_TIME_OFFSET ( 1, 0, .AHEAD. ) ;
#193 = AXIS2_PLACEMENT_3D ( 'NONE', #177, #84, #138 ) ;
#194 = ADVANCED_FACE ( 'NONE', ( #122 ), #197, .F. ) ;
#195 = CYLINDRICAL_SURFACE ( 'NONE', #139, 1.999999999999996669 ) ;
#196 = DIRECTION ( 'NONE',  ( -3.491481338843133355E-15, 1.224646799147353207E-16, -1.000000000000000000 ) ) ;
#197 = PLANE ( 'NONE',  #225 ) ;
#198 = CIRCLE ( 'NONE', #193, 2.470000000000029949 ) ;
#199 = CARTESIAN_POINT ( 'NONE',  ( 4.474006491021863103E-14, 1.999999999999990452, 12.81406387955743575 ) ) ;
#200 = PLANE ( 'NONE',  #169 ) ;
#201 = CALENDAR_DATE ( 2021, 2, 12 ) ;
#202 = LOCAL_TIME ( 13, 56, 55.00000000000000000, #69 ) ;
#203 = CC_DESIGN_PERSON_AND_ORGANIZATION_ASSIGNMENT ( #184, #89, ( #143 ) ) ;
#204 = APPROVAL_DATE_TIME ( #36, #42 ) ;
#205 = PERSON_AND_ORGANIZATION_ROLE ( 'classification_officer' ) ;
#206 = DATE_AND_TIME ( #201, #158 ) ;
#207 = CC_DESIGN_APPROVAL ( #42, ( #143 ) ) ;
#208 = APPROVAL_STATUS ( 'not_yet_approved' ) ;
#209 = FACE_OUTER_BOUND ( 'NONE', #21, .T. ) ;
#210 = APPROVAL_ROLE ( '' ) ;
#211 = EDGE_CURVE ( 'NONE', #221, #221, #20, .T. ) ;
#212 = DIRECTION ( 'NONE',  ( 0.0000000000000000000, 1.000000000000000000, 0.0000000000000000000 ) ) ;
#213 = AXIS2_PLACEMENT_3D ( 'NONE', #105, #46, #125 ) ;
#214 = FACE_OUTER_BOUND ( 'NONE', #59, .T. ) ;
#215 = DIRECTION ( 'NONE',  ( -3.491481338843133355E-15, 1.224646799147353207E-16, -1.000000000000000000 ) ) ;
#216 = CARTESIAN_POINT ( 'NONE',  ( 4.189777606611760026E-14, -1.469576158976823947E-15, 12.00000000000000000 ) ) ;
#217 = PLANE ( 'NONE',  #150 ) ;
#218 = CIRCLE ( 'NONE', #15, 2.470000000000029949 ) ;
#219 = DIRECTION ( 'NONE',  ( -3.491481338843133355E-15, 1.224646799147353207E-16, -1.000000000000000000 ) ) ;
#220 = PERSON_AND_ORGANIZATION ( #170, #53 ) ;
#221 = VERTEX_POINT ( 'NONE', #109 ) ;
#222 = APPROVAL_PERSON_ORGANIZATION ( #37, #58, #210 ) ;
#223 = APPLICATION_PROTOCOL_DEFINITION ( 'international standard', 'config_control_design', 1994, #112 ) ;
#224 = COORDINATED_UNIVERSAL_TIME_OFFSET ( 1, 0, .AHEAD. ) ;
#225 = AXIS2_PLACEMENT_3D ( 'NONE', #27, #6, #103 ) ;
#226 = EDGE_CURVE ( 'NONE', #149, #149, #198, .T. ) ;
#227 = CLOSED_SHELL ( 'NONE', ( #154, #186, #238, #10, #194 ) ) ;
#228 = EDGE_CURVE ( 'NONE', #107, #107, #67, .T. ) ;
#229 = ORIENTED_EDGE ( 'NONE', *, *, #228, .F. ) ;
#230 = CC_DESIGN_APPROVAL ( #175, ( #88 ) ) ;
#231 = DIRECTION ( 'NONE',  ( -4.275831445896957731E-31, -1.000000000000000000, -1.224646799147353207E-16 ) ) ;
#232 = CARTESIAN_POINT ( 'NONE',  ( 4.189777606611760026E-14, -1.469576158976823947E-15, 12.00000000000000000 ) ) ;
#233 = ADVANCED_FACE ( 'NONE', ( #182 ), #100, .T. ) ;
#234 = FACE_BOUND ( 'NONE', #38, .T. ) ;
#235 = DIRECTION ( 'NONE',  ( 4.275831445896958607E-31, 1.000000000000000000, 1.224646799147353207E-16 ) ) ;
#236 = CC_DESIGN_APPROVAL ( #58, ( #48 ) ) ;
#237 = FACE_BOUND ( 'NONE', #242, .T. ) ;
#238 = ADVANCED_FACE ( 'NONE', ( #41, #120 ), #195, .T. ) ;
#239 = DATE_AND_TIME ( #148, #202 ) ;
#240 = DATE_TIME_ROLE ( 'creation_date' ) ;
#241 = AXIS2_PLACEMENT_3D ( 'NONE', #5, #219, #8 ) ;
#242 = EDGE_LOOP ( 'NONE', ( #95 ) ) ;
#243 = EDGE_LOOP ( 'NONE', ( #19 ) ) ;
ENDSEC;
END-ISO-10303-21;
