ISO-10303-21;
HEADER;
FILE_DESCRIPTION (( 'STEP AP203' ),
    '1' );
FILE_NAME ('321719.step',
    '2021-12-02T12:56:54',
    ( '' ),
    ( '' ),
    'SwSTEP 2.0',
    'SolidWorks 2019',
    '' );
FILE_SCHEMA (( 'CONFIG_CONTROL_DESIGN' ));
ENDSEC;

DATA;
#1 = CARTESIAN_POINT ( 'NONE',  ( 4.189777606611760026E-14, -1.469576158976823947E-15, 12.00000000000000000 ) ) ;
#2 = SECURITY_CLASSIFICATION_LEVEL ( 'unclassified' ) ;
#3 = DATE_AND_TIME ( #176, #81 ) ;
#4 = CC_DESIGN_DATE_AND_TIME_ASSIGNMENT ( #3, #80, ( #141 ) ) ;
#5 = AXIS2_PLACEMENT_3D ( 'NONE', #157, #49, #152 ) ;
#6 = EDGE_LOOP ( 'NONE', ( #62 ) ) ;
#7 = EDGE_LOOP ( 'NONE', ( #28 ) ) ;
#8 = EDGE_LOOP ( 'NONE', ( #168 ) ) ;
#9 = ORIENTED_EDGE ( 'NONE', *, *, #187, .F. ) ;
#10 = ORIENTED_EDGE ( 'NONE', *, *, #35, .F. ) ;
#11 = DIRECTION ( 'NONE',  ( 3.491481338843133355E-15, -1.224646799147353207E-16, 1.000000000000000000 ) ) ;
#12 = PRODUCT ( '321719', '321719', '', ( #195 ) ) ;
#13 = CARTESIAN_POINT ( 'NONE',  ( 0.0000000000000000000, 0.0000000000000000000, 0.0000000000000000000 ) ) ;
#14 = FACE_OUTER_BOUND ( 'NONE', #27, .T. ) ;
#15 = MANIFOLD_SOLID_BREP ( 'Corps-Déplacer/Copier1[1]', #220 ) ;
#16 = CONICAL_SURFACE ( 'NONE', #109, 2.465000000000030056, 0.5235987755983003700 ) ;
#17 = PLANE ( 'NONE',  #240 ) ;
#18 = CARTESIAN_POINT ( 'NONE',  ( 1.396592535537252356E-15, 2.465000000000030056, 0.3999999999999997446 ) ) ;
#19 = DATE_AND_TIME ( #101, #179 ) ;
#20 = EDGE_CURVE ( 'NONE', #33, #33, #116, .T. ) ;
#21 = APPLICATION_CONTEXT ( 'configuration controlled 3d designs of mechanical parts and assemblies' ) ;
#22 = APPROVAL_STATUS ( 'not_yet_approved' ) ;
#23 = PERSON_AND_ORGANIZATION ( #43, #212 ) ;
#24 = DIRECTION ( 'NONE',  ( -4.275831445896958607E-31, -1.000000000000000000, -1.224646799147352961E-16 ) ) ;
#25 = ADVANCED_FACE ( 'NONE', ( #84, #132 ), #238, .T. ) ;
#26 = ORIENTED_EDGE ( 'NONE', *, *, #223, .F. ) ;
#27 = EDGE_LOOP ( 'NONE', ( #147 ) ) ;
#28 = ORIENTED_EDGE ( 'NONE', *, *, #187, .T. ) ;
#29 = CARTESIAN_POINT ( 'NONE',  ( 1.396592535537251370E-15, -4.898587196589405680E-17, 0.3999999999999994116 ) ) ;
#30 =( NAMED_UNIT ( * ) PLANE_ANGLE_UNIT ( ) SI_UNIT ( $, .RADIAN. ) );
#31 = CARTESIAN_POINT ( 'NONE',  ( 4.189777606611760026E-14, 1.848453932130760384E-32, 12.00000000000000000 ) ) ;
#32 = FACE_OUTER_BOUND ( 'NONE', #6, .T. ) ;
#33 = VERTEX_POINT ( 'NONE', #172 ) ;
#34 = PERSON_AND_ORGANIZATION_ROLE ( 'classification_officer' ) ;
#35 = EDGE_CURVE ( 'NONE', #154, #154, #104, .T. ) ;
#36 = PERSON_AND_ORGANIZATION ( #43, #212 ) ;
#37 = APPROVAL_DATE_TIME ( #19, #201 ) ;
#38 = CLOSED_SHELL ( 'NONE', ( #207, #239, #71, #25 ) ) ;
#39 = PERSON_AND_ORGANIZATION_ROLE ( 'design_owner' ) ;
#40 = CC_DESIGN_DATE_AND_TIME_ASSIGNMENT ( #120, #190, ( #88 ) ) ;
#41 = DIRECTION ( 'NONE',  ( 3.491481338843133355E-15, -1.224646799147353207E-16, 1.000000000000000000 ) ) ;
#42 = CC_DESIGN_PERSON_AND_ORGANIZATION_ASSIGNMENT ( #142, #139, ( #141 ) ) ;
#43 = PERSON ( 'UNSPECIFIED', 'UNSPECIFIED', 'UNSPECIFIED', ('UNSPECIFIED'), ('UNSPECIFIED'), ('UNSPECIFIED') ) ;
#44 = ORIENTED_EDGE ( 'NONE', *, *, #20, .F. ) ;
#45 = DIRECTION ( 'NONE',  ( 0.0000000000000000000, 1.000000000000000000, 0.0000000000000000000 ) ) ;
#46 = CONICAL_SURFACE ( 'NONE', #5, 1.600000000000000977, 0.7853981633974512766 ) ;
#47 = DIRECTION ( 'NONE',  ( 0.0000000000000000000, 1.000000000000000000, 0.0000000000000000000 ) ) ;
#48 = DIRECTION ( 'NONE',  ( -3.491481338843133355E-15, 1.224646799147353207E-16, -1.000000000000000000 ) ) ;
#49 = DIRECTION ( 'NONE',  ( -3.491481338843133355E-15, 1.224646799147353207E-16, -1.000000000000000000 ) ) ;
#50 = DIRECTION ( 'NONE',  ( -3.491481338843133355E-15, 1.224646799147353207E-16, -1.000000000000000000 ) ) ;
#51 = CARTESIAN_POINT ( 'NONE',  ( 4.470982779485585599E-14, 1.999999999999990452, 12.80540362551959177 ) ) ;
#52 = DIRECTION ( 'NONE',  ( 4.275831445896958607E-31, 1.000000000000000000, 1.224646799147353207E-16 ) ) ;
#53 = AXIS2_PLACEMENT_3D ( 'NONE', #75, #50, #52 ) ;
#54 = FACE_OUTER_BOUND ( 'NONE', #83, .T. ) ;
#55 = APPROVAL_DATE_TIME ( #103, #92 ) ;
#56 = APPROVAL_ROLE ( '' ) ;
#57 = PERSON_AND_ORGANIZATION ( #43, #212 ) ;
#58 = APPROVAL_PERSON_ORGANIZATION ( #23, #92, #119 ) ;
#59 = CC_DESIGN_APPROVAL ( #201, ( #88 ) ) ;
#60 = CC_DESIGN_PERSON_AND_ORGANIZATION_ASSIGNMENT ( #57, #39, ( #12 ) ) ;
#61 = DATE_AND_TIME ( #102, #67 ) ;
#62 = ORIENTED_EDGE ( 'NONE', *, *, #20, .T. ) ;
#63 = CC_DESIGN_PERSON_AND_ORGANIZATION_ASSIGNMENT ( #97, #34, ( #88 ) ) ;
#64 = FACE_OUTER_BOUND ( 'NONE', #222, .T. ) ;
#65 = CARTESIAN_POINT ( 'NONE',  ( 4.470982779485585599E-14, -1.568209656178247933E-15, 12.80540362551959177 ) ) ;
#66 = ORIENTED_EDGE ( 'NONE', *, *, #160, .F. ) ;
#67 = LOCAL_TIME ( 13, 56, 54.00000000000000000, #100 ) ;
#68 = ORIENTED_EDGE ( 'NONE', *, *, #113, .F. ) ;
#69 = PERSON_AND_ORGANIZATION_ROLE ( 'creator' ) ;
#70 = CARTESIAN_POINT ( 'NONE',  ( 4.189777606611760026E-14, 1.848453932130760384E-32, 12.00000000000000000 ) ) ;
#71 = ADVANCED_FACE ( 'NONE', ( #64 ), #127, .T. ) ;
#72 = DIRECTION ( 'NONE',  ( 4.275831445896958607E-31, 1.000000000000000000, 1.224646799147353207E-16 ) ) ;
#73 = CIRCLE ( 'NONE', #138, 1.999999999999992228 ) ;
#74 = DIRECTION ( 'NONE',  ( -4.275831445896958607E-31, -1.000000000000000000, -1.224646799147353207E-16 ) ) ;
#75 = CARTESIAN_POINT ( 'NONE',  ( 2.793185071074506684E-13, 1.199807826129472128E-32, 80.00000000000000000 ) ) ;
#76 = COORDINATED_UNIVERSAL_TIME_OFFSET ( 1, 0, .AHEAD. ) ;
#77 = PRODUCT_DEFINITION_SHAPE ( 'NONE', 'NONE',  #141 ) ;
#78 = CARTESIAN_POINT ( 'NONE',  ( 4.189777606611760026E-14, 2.465000000000028724, 12.00000000000000000 ) ) ;
#79 = SHAPE_DEFINITION_REPRESENTATION ( #77, #93 ) ;
#80 = DATE_TIME_ROLE ( 'creation_date' ) ;
#81 = LOCAL_TIME ( 13, 56, 54.00000000000000000, #123 ) ;
#82 = EDGE_CURVE ( 'NONE', #189, #189, #117, .T. ) ;
#83 = EDGE_LOOP ( 'NONE', ( #68 ) ) ;
#84 = FACE_OUTER_BOUND ( 'NONE', #7, .T. ) ;
#85 = EDGE_LOOP ( 'NONE', ( #108 ) ) ;
#86 = DIRECTION ( 'NONE',  ( 4.275831445896958607E-31, 1.000000000000000000, 1.224646799147353207E-16 ) ) ;
#87 = DESIGN_CONTEXT ( 'detailed design', #21, 'design' ) ;
#88 = SECURITY_CLASSIFICATION ( '', '', #2 ) ;
#89 = CARTESIAN_POINT ( 'NONE',  ( -8.829591935777342863E-31, 3.097003951196778820E-32, -2.528895640239319326E-16 ) ) ;
#90 = CIRCLE ( 'NONE', #149, 2.465000000000030056 ) ;
#91 = VERTEX_POINT ( 'NONE', #191 ) ;
#92 = APPROVAL ( #231, 'UNSPECIFIED' ) ;
#93 = ADVANCED_BREP_SHAPE_REPRESENTATION ( '321719', ( #15, #98, #169 ), #173 ) ;
#94 = DIRECTION ( 'NONE',  ( -3.491481338843133355E-15, 1.224646799147353207E-16, -1.000000000000000000 ) ) ;
#95 = DIRECTION ( 'NONE',  ( 4.275831445896958607E-31, 1.000000000000000000, 1.224646799147353207E-16 ) ) ;
#96 = VERTEX_POINT ( 'NONE', #78 ) ;
#97 = PERSON_AND_ORGANIZATION ( #43, #212 ) ;
#98 = MANIFOLD_SOLID_BREP ( 'Corps-Déplacer/Copier1[2]', #38 ) ;
#99 = CALENDAR_DATE ( 2021, 2, 12 ) ;
#100 = COORDINATED_UNIVERSAL_TIME_OFFSET ( 1, 0, .AHEAD. ) ;
#101 = CALENDAR_DATE ( 2021, 2, 12 ) ;
#102 = CALENDAR_DATE ( 2021, 2, 12 ) ;
#103 = DATE_AND_TIME ( #99, #221 ) ;
#104 = CIRCLE ( 'NONE', #167, 2.000000000000000888 ) ;
#105 = PRODUCT_DEFINITION_FORMATION_WITH_SPECIFIED_SOURCE ( 'ANY', '', #12, .NOT_KNOWN. ) ;
#106 = DIRECTION ( 'NONE',  ( -3.491481338843133355E-15, 1.224646799147353207E-16, -1.000000000000000000 ) ) ;
#107 = EDGE_LOOP ( 'NONE', ( #180 ) ) ;
#108 = ORIENTED_EDGE ( 'NONE', *, *, #160, .T. ) ;
#109 = AXIS2_PLACEMENT_3D ( 'NONE', #110, #148, #47 ) ;
#110 = CARTESIAN_POINT ( 'NONE',  ( 4.189777606611760026E-14, -1.469576158976823947E-15, 12.00000000000000000 ) ) ;
#111 = FACE_OUTER_BOUND ( 'NONE', #237, .T. ) ;
#112 = DIRECTION ( 'NONE',  ( -3.491481338843133355E-15, 1.224646799147353207E-16, -1.000000000000000000 ) ) ;
#113 = EDGE_CURVE ( 'NONE', #133, #133, #73, .T. ) ;
#114 = DIRECTION ( 'NONE',  ( -4.275831445896958607E-31, -1.000000000000000000, -1.224646799147353207E-16 ) ) ;
#115 = VERTEX_POINT ( 'NONE', #18 ) ;
#116 = CIRCLE ( 'NONE', #145, 2.465000000000030056 ) ;
#117 = CIRCLE ( 'NONE', #230, 2.065000000000028813 ) ;
#118 = DIRECTION ( 'NONE',  ( 3.906551611333087841E-31, 1.000000000000000000, 1.319515828582748032E-16 ) ) ;
#119 = APPROVAL_ROLE ( '' ) ;
#120 = DATE_AND_TIME ( #155, #156 ) ;
#121 = APPROVAL_STATUS ( 'not_yet_approved' ) ;
#122 = ADVANCED_FACE ( 'NONE', ( #128, #205 ), #16, .T. ) ;
#123 = COORDINATED_UNIVERSAL_TIME_OFFSET ( 1, 0, .AHEAD. ) ;
#124 = APPROVAL_DATE_TIME ( #61, #144 ) ;
#125 = CIRCLE ( 'NONE', #199, 1.600000000000000977 ) ;
#126 = EDGE_LOOP ( 'NONE', ( #10 ) ) ;
#127 = PLANE ( 'NONE',  #198 ) ;
#128 = FACE_BOUND ( 'NONE', #8, .T. ) ;
#129 = AXIS2_PLACEMENT_3D ( 'NONE', #31, #206, #114 ) ;
#130 = CARTESIAN_POINT ( 'NONE',  ( 2.779219145719134403E-13, -9.748188521212932624E-15, 79.60000000000000853 ) ) ;
#131 = ADVANCED_FACE ( 'NONE', ( #111 ), #188, .F. ) ;
#132 = FACE_BOUND ( 'NONE', #107, .T. ) ;
#133 = VERTEX_POINT ( 'NONE', #51 ) ;
#134 = CYLINDRICAL_SURFACE ( 'NONE', #234, 2.465000000000030056 ) ;
#135 = DIRECTION ( 'NONE',  ( -3.491481338843133355E-15, 1.224646799147353207E-16, -1.000000000000000000 ) ) ;
#136 = CARTESIAN_POINT ( 'NONE',  ( 0.0000000000000000000, 0.0000000000000000000, 0.0000000000000000000 ) ) ;
#137 = AXIS2_PLACEMENT_3D ( 'NONE', #217, #41, #24 ) ;
#138 = AXIS2_PLACEMENT_3D ( 'NONE', #65, #219, #45 ) ;
#139 = PERSON_AND_ORGANIZATION_ROLE ( 'creator' ) ;
#140 = CARTESIAN_POINT ( 'NONE',  ( 0.0000000000000000000, 0.0000000000000000000, 0.0000000000000000000 ) ) ;
#141 = PRODUCT_DEFINITION ( 'UNKNOWN', '', #105, #87 ) ;
#142 = PERSON_AND_ORGANIZATION ( #43, #212 ) ;
#143 = PRODUCT_RELATED_PRODUCT_CATEGORY ( 'detail', '', ( #12 ) ) ;
#144 = APPROVAL ( #121, 'UNSPECIFIED' ) ;
#145 = AXIS2_PLACEMENT_3D ( 'NONE', #185, #48, #165 ) ;
#146 = UNCERTAINTY_MEASURE_WITH_UNIT (LENGTH_MEASURE( 1.000000000000000082E-05 ), #151, 'distance_accuracy_value', 'NONE');
#147 = ORIENTED_EDGE ( 'NONE', *, *, #223, .T. ) ;
#148 = DIRECTION ( 'NONE',  ( -3.491481338843133355E-15, 1.224646799147353207E-16, -1.000000000000000000 ) ) ;
#149 = AXIS2_PLACEMENT_3D ( 'NONE', #29, #112, #118 ) ;
#150 = ORIENTED_EDGE ( 'NONE', *, *, #82, .T. ) ;
#151 =( LENGTH_UNIT ( ) NAMED_UNIT ( * ) SI_UNIT ( .MILLI., .METRE. ) );
#152 = DIRECTION ( 'NONE',  ( 0.0000000000000000000, 1.000000000000000000, 0.0000000000000000000 ) ) ;
#153 = APPLICATION_CONTEXT ( 'configuration controlled 3d designs of mechanical parts and assemblies' ) ;
#154 = VERTEX_POINT ( 'NONE', #227 ) ;
#155 = CALENDAR_DATE ( 2021, 2, 12 ) ;
#156 = LOCAL_TIME ( 13, 56, 54.00000000000000000, #242 ) ;
#157 = CARTESIAN_POINT ( 'NONE',  ( 2.793185071074506684E-13, -9.797174393178826052E-15, 80.00000000000000000 ) ) ;
#158 = FACE_OUTER_BOUND ( 'NONE', #235, .T. ) ;
#159 = CIRCLE ( 'NONE', #215, 2.465000000000030056 ) ;
#160 = EDGE_CURVE ( 'NONE', #91, #91, #125, .T. ) ;
#161 = PERSON_AND_ORGANIZATION ( #43, #212 ) ;
#162 = AXIS2_PLACEMENT_3D ( 'NONE', #13, #186, #72 ) ;
#163 = DIRECTION ( 'NONE',  ( 0.0000000000000000000, 1.000000000000000000, 0.0000000000000000000 ) ) ;
#164 = CC_DESIGN_PERSON_AND_ORGANIZATION_ASSIGNMENT ( #194, #196, ( #105 ) ) ;
#165 = DIRECTION ( 'NONE',  ( 0.0000000000000000000, 1.000000000000000000, 0.0000000000000000000 ) ) ;
#166 = DIRECTION ( 'NONE',  ( 4.275831445896958607E-31, 1.000000000000000000, 1.224646799147352961E-16 ) ) ;
#167 = AXIS2_PLACEMENT_3D ( 'NONE', #130, #106, #163 ) ;
#168 = ORIENTED_EDGE ( 'NONE', *, *, #113, .T. ) ;
#169 = AXIS2_PLACEMENT_3D ( 'NONE', #140, #214, #177 ) ;
#170 = CC_DESIGN_SECURITY_CLASSIFICATION ( #88, ( #105 ) ) ;
#171 =( NAMED_UNIT ( * ) SI_UNIT ( $, .STERADIAN. ) SOLID_ANGLE_UNIT ( ) );
#172 = CARTESIAN_POINT ( 'NONE',  ( 4.189777606611760026E-14, 2.465000000000028724, 12.00000000000000000 ) ) ;
#173 =( GEOMETRIC_REPRESENTATION_CONTEXT ( 3 ) GLOBAL_UNCERTAINTY_ASSIGNED_CONTEXT ( ( #146 ) ) GLOBAL_UNIT_ASSIGNED_CONTEXT ( ( #151, #30, #171 ) ) REPRESENTATION_CONTEXT ( 'NONE', 'WORKASPACE' ) );
#174 = FACE_OUTER_BOUND ( 'NONE', #202, .T. ) ;
#175 = CARTESIAN_POINT ( 'NONE',  ( 2.793185071074506684E-13, -9.797174393178826052E-15, 80.00000000000000000 ) ) ;
#176 = CALENDAR_DATE ( 2021, 2, 12 ) ;
#177 = DIRECTION ( 'NONE',  ( 1.000000000000000000, 0.0000000000000000000, 0.0000000000000000000 ) ) ;
#178 = APPROVAL_PERSON_ORGANIZATION ( #36, #144, #193 ) ;
#179 = LOCAL_TIME ( 13, 56, 54.00000000000000000, #76 ) ;
#180 = ORIENTED_EDGE ( 'NONE', *, *, #82, .F. ) ;
#181 = ADVANCED_FACE ( 'NONE', ( #32 ), #241, .F. ) ;
#182 = EDGE_LOOP ( 'NONE', ( #9 ) ) ;
#183 = ORIENTED_EDGE ( 'NONE', *, *, #35, .T. ) ;
#184 = CARTESIAN_POINT ( 'NONE',  ( -4.414795967888671432E-31, 1.548501975598389410E-32, -1.264447820119659663E-16 ) ) ;
#185 = CARTESIAN_POINT ( 'NONE',  ( 4.189777606611760026E-14, -1.469576158976823947E-15, 12.00000000000000000 ) ) ;
#186 = DIRECTION ( 'NONE',  ( -3.491481338843133355E-15, 1.224646799147353207E-16, -1.000000000000000000 ) ) ;
#187 = EDGE_CURVE ( 'NONE', #115, #115, #90, .T. ) ;
#188 = PLANE ( 'NONE',  #53 ) ;
#189 = VERTEX_POINT ( 'NONE', #210 ) ;
#190 = DATE_TIME_ROLE ( 'classification_date' ) ;
#191 = CARTESIAN_POINT ( 'NONE',  ( 2.793185071074506684E-13, 1.599999999999991207, 80.00000000000000000 ) ) ;
#192 = APPLICATION_PROTOCOL_DEFINITION ( 'international standard', 'config_control_design', 1994, #21 ) ;
#193 = APPROVAL_ROLE ( '' ) ;
#194 = PERSON_AND_ORGANIZATION ( #43, #212 ) ;
#195 = MECHANICAL_CONTEXT ( 'NONE', #153, 'mechanical' ) ;
#196 = PERSON_AND_ORGANIZATION_ROLE ( 'design_supplier' ) ;
#197 = PERSON_AND_ORGANIZATION ( #43, #212 ) ;
#198 = AXIS2_PLACEMENT_3D ( 'NONE', #184, #203, #86 ) ;
#199 = AXIS2_PLACEMENT_3D ( 'NONE', #175, #208, #228 ) ;
#200 = ADVANCED_FACE ( 'NONE', ( #54, #174 ), #224, .T. ) ;
#201 = APPROVAL ( #22, 'UNSPECIFIED' ) ;
#202 = EDGE_LOOP ( 'NONE', ( #183 ) ) ;
#203 = DIRECTION ( 'NONE',  ( -3.491481338843133355E-15, 1.224646799147353207E-16, -1.000000000000000000 ) ) ;
#204 = CC_DESIGN_APPROVAL ( #92, ( #141 ) ) ;
#205 = FACE_OUTER_BOUND ( 'NONE', #218, .T. ) ;
#206 = DIRECTION ( 'NONE',  ( 3.491481338843133355E-15, -1.224646799147353207E-16, 1.000000000000000000 ) ) ;
#207 = ADVANCED_FACE ( 'NONE', ( #14, #226 ), #134, .T. ) ;
#208 = DIRECTION ( 'NONE',  ( -3.491481338843133355E-15, 1.224646799147353207E-16, -1.000000000000000000 ) ) ;
#209 = APPROVAL_PERSON_ORGANIZATION ( #161, #201, #56 ) ;
#210 = CARTESIAN_POINT ( 'NONE',  ( 0.0000000000000000000, 2.065000000000028813, 0.0000000000000000000 ) ) ;
#211 = DIRECTION ( 'NONE',  ( 0.0000000000000000000, 1.000000000000000000, 0.0000000000000000000 ) ) ;
#212 = ORGANIZATION ( 'UNSPECIFIED', 'UNSPECIFIED', '' ) ;
#213 = COORDINATED_UNIVERSAL_TIME_OFFSET ( 1, 0, .AHEAD. ) ;
#214 = DIRECTION ( 'NONE',  ( 0.0000000000000000000, 0.0000000000000000000, 1.000000000000000000 ) ) ;
#215 = AXIS2_PLACEMENT_3D ( 'NONE', #1, #94, #211 ) ;
#216 = CC_DESIGN_PERSON_AND_ORGANIZATION_ASSIGNMENT ( #197, #69, ( #105 ) ) ;
#217 = CARTESIAN_POINT ( 'NONE',  ( -8.829591935777342863E-31, 3.097003951196778820E-32, -2.528895640239319326E-16 ) ) ;
#218 = EDGE_LOOP ( 'NONE', ( #44 ) ) ;
#219 = DIRECTION ( 'NONE',  ( -3.491481338843133355E-15, 1.224646799147353207E-16, -1.000000000000000000 ) ) ;
#220 = CLOSED_SHELL ( 'NONE', ( #181, #122, #200, #233, #131 ) ) ;
#221 = LOCAL_TIME ( 13, 56, 54.00000000000000000, #213 ) ;
#222 = EDGE_LOOP ( 'NONE', ( #150 ) ) ;
#223 = EDGE_CURVE ( 'NONE', #96, #96, #159, .T. ) ;
#224 = CYLINDRICAL_SURFACE ( 'NONE', #162, 1.999999999999996669 ) ;
#225 = CC_DESIGN_APPROVAL ( #144, ( #105 ) ) ;
#226 = FACE_OUTER_BOUND ( 'NONE', #182, .T. ) ;
#227 = CARTESIAN_POINT ( 'NONE',  ( 2.779219145719134403E-13, 1.999999999999991340, 79.60000000000000853 ) ) ;
#228 = DIRECTION ( 'NONE',  ( 0.0000000000000000000, 1.000000000000000000, 0.0000000000000000000 ) ) ;
#229 = FACE_BOUND ( 'NONE', #85, .T. ) ;
#230 = AXIS2_PLACEMENT_3D ( 'NONE', #89, #236, #166 ) ;
#231 = APPROVAL_STATUS ( 'not_yet_approved' ) ;
#232 = APPLICATION_PROTOCOL_DEFINITION ( 'international standard', 'config_control_design', 1994, #153 ) ;
#233 = ADVANCED_FACE ( 'NONE', ( #243, #229 ), #46, .T. ) ;
#234 = AXIS2_PLACEMENT_3D ( 'NONE', #136, #135, #95 ) ;
#235 = EDGE_LOOP ( 'NONE', ( #26 ) ) ;
#236 = DIRECTION ( 'NONE',  ( -3.491481338843133355E-15, 1.224646799147353207E-16, -1.000000000000000000 ) ) ;
#237 = EDGE_LOOP ( 'NONE', ( #66 ) ) ;
#238 = CONICAL_SURFACE ( 'NONE', #137, 2.065000000000028813, 0.7853981633974504994 ) ;
#239 = ADVANCED_FACE ( 'NONE', ( #158 ), #17, .T. ) ;
#240 = AXIS2_PLACEMENT_3D ( 'NONE', #70, #11, #74 ) ;
#241 = PLANE ( 'NONE',  #129 ) ;
#242 = COORDINATED_UNIVERSAL_TIME_OFFSET ( 1, 0, .AHEAD. ) ;
#243 = FACE_OUTER_BOUND ( 'NONE', #126, .T. ) ;
ENDSEC;
END-ISO-10303-21;
