ISO-10303-21;
HEADER;
FILE_DESCRIPTION (( 'STEP AP203' ),
    '1' );
FILE_NAME ('321718.step',
    '2021-12-02T12:56:53',
    ( '' ),
    ( '' ),
    'SwSTEP 2.0',
    'SolidWorks 2019',
    '' );
FILE_SCHEMA (( 'CONFIG_CONTROL_DESIGN' ));
ENDSEC;

DATA;
#1 = FACE_OUTER_BOUND ( 'NONE', #32, .T. ) ;
#2 = PERSON_AND_ORGANIZATION_ROLE ( 'design_supplier' ) ;
#3 = ADVANCED_FACE ( 'NONE', ( #13, #218 ), #186, .T. ) ;
#4 = CONICAL_SURFACE ( 'NONE', #170, 1.600000000000000977, 0.7853981633974512766 ) ;
#5 = VERTEX_POINT ( 'NONE', #212 ) ;
#6 = AXIS2_PLACEMENT_3D ( 'NONE', #122, #198, #104 ) ;
#7 = EDGE_CURVE ( 'NONE', #59, #59, #43, .T. ) ;
#8 = ORIENTED_EDGE ( 'NONE', *, *, #191, .F. ) ;
#9 = DIRECTION ( 'NONE',  ( -3.491481338843133355E-15, 1.224646799147353207E-16, -1.000000000000000000 ) ) ;
#10 = MANIFOLD_SOLID_BREP ( 'Corps-Déplacer/Copier1[2]', #41 ) ;
#11 = CARTESIAN_POINT ( 'NONE',  ( 2.779219145719134403E-13, -9.748188521212932624E-15, 79.60000000000000853 ) ) ;
#12 = AXIS2_PLACEMENT_3D ( 'NONE', #82, #86, #38 ) ;
#13 = FACE_BOUND ( 'NONE', #178, .T. ) ;
#14 = DIRECTION ( 'NONE',  ( 0.0000000000000000000, 1.000000000000000000, 0.0000000000000000000 ) ) ;
#15 = APPROVAL ( #150, 'UNSPECIFIED' ) ;
#16 = PRODUCT ( '321718', '321718', '', ( #193 ) ) ;
#17 = CIRCLE ( 'NONE', #207, 1.999999999999992228 ) ;
#18 = APPROVAL_ROLE ( '' ) ;
#19 = ORGANIZATION ( 'UNSPECIFIED', 'UNSPECIFIED', '' ) ;
#20 = VERTEX_POINT ( 'NONE', #233 ) ;
#21 = DIRECTION ( 'NONE',  ( -3.491481338843133355E-15, 1.224646799147353207E-16, -1.000000000000000000 ) ) ;
#22 = EDGE_LOOP ( 'NONE', ( #210 ) ) ;
#23 = ADVANCED_FACE ( 'NONE', ( #89 ), #54, .F. ) ;
#24 = LOCAL_TIME ( 13, 56, 53.00000000000000000, #169 ) ;
#25 = CARTESIAN_POINT ( 'NONE',  ( 4.189777606611760026E-14, 1.844704532674101608E-32, 12.00000000000000000 ) ) ;
#26 = ORIENTED_EDGE ( 'NONE', *, *, #191, .T. ) ;
#27 = DATE_TIME_ROLE ( 'classification_date' ) ;
#28 = PERSON_AND_ORGANIZATION_ROLE ( 'creator' ) ;
#29 = CARTESIAN_POINT ( 'NONE',  ( 4.189777606611760026E-14, -1.469576158976823947E-15, 12.00000000000000000 ) ) ;
#30 = LOCAL_TIME ( 13, 56, 53.00000000000000000, #92 ) ;
#31 = DIRECTION ( 'NONE',  ( -3.491481338843133355E-15, 1.224646799147353207E-16, -1.000000000000000000 ) ) ;
#32 = EDGE_LOOP ( 'NONE', ( #100 ) ) ;
#33 = CALENDAR_DATE ( 2021, 2, 12 ) ;
#34 = PRODUCT_DEFINITION_FORMATION_WITH_SPECIFIED_SOURCE ( 'ANY', '', #16, .NOT_KNOWN. ) ;
#35 = CIRCLE ( 'NONE', #217, 2.000000000000000888 ) ;
#36 = ORIENTED_EDGE ( 'NONE', *, *, #110, .F. ) ;
#37 = CC_DESIGN_PERSON_AND_ORGANIZATION_ASSIGNMENT ( #105, #56, ( #16 ) ) ;
#38 = DIRECTION ( 'NONE',  ( 4.275831445896958607E-31, 1.000000000000000000, 1.224646799147353207E-16 ) ) ;
#39 = AXIS2_PLACEMENT_3D ( 'NONE', #96, #9, #196 ) ;
#40 = CARTESIAN_POINT ( 'NONE',  ( -8.808212778547833626E-31, 3.089505152283461814E-32, -2.522772406243576040E-16 ) ) ;
#41 = CLOSED_SHELL ( 'NONE', ( #152, #188, #106, #175 ) ) ;
#42 = ORIENTED_EDGE ( 'NONE', *, *, #75, .F. ) ;
#43 = CIRCLE ( 'NONE', #172, 2.460000000000024833 ) ;
#44 = PERSON ( 'UNSPECIFIED', 'UNSPECIFIED', 'UNSPECIFIED', ('UNSPECIFIED'), ('UNSPECIFIED'), ('UNSPECIFIED') ) ;
#45 = DIRECTION ( 'NONE',  ( 1.000000000000000000, 0.0000000000000000000, 0.0000000000000000000 ) ) ;
#46 = ORIENTED_EDGE ( 'NONE', *, *, #110, .T. ) ;
#47 = DIRECTION ( 'NONE',  ( -3.491481338843133355E-15, 1.224646799147353207E-16, -1.000000000000000000 ) ) ;
#48 = EDGE_LOOP ( 'NONE', ( #141 ) ) ;
#49 = CARTESIAN_POINT ( 'NONE',  ( 4.189777606611760026E-14, 2.460000000000023501, 12.00000000000000000 ) ) ;
#50 = ORIENTED_EDGE ( 'NONE', *, *, #75, .T. ) ;
#51 = FACE_BOUND ( 'NONE', #48, .T. ) ;
#52 = CC_DESIGN_DATE_AND_TIME_ASSIGNMENT ( #227, #109, ( #146 ) ) ;
#53 = CARTESIAN_POINT ( 'NONE',  ( 0.0000000000000000000, 0.0000000000000000000, 0.0000000000000000000 ) ) ;
#54 = PLANE ( 'NONE',  #216 ) ;
#55 =( GEOMETRIC_REPRESENTATION_CONTEXT ( 3 ) GLOBAL_UNCERTAINTY_ASSIGNED_CONTEXT ( ( #181 ) ) GLOBAL_UNIT_ASSIGNED_CONTEXT ( ( #63, #136, #99 ) ) REPRESENTATION_CONTEXT ( 'NONE', 'WORKASPACE' ) );
#56 = PERSON_AND_ORGANIZATION_ROLE ( 'design_owner' ) ;
#57 = CC_DESIGN_APPROVAL ( #231, ( #146 ) ) ;
#58 = PERSON_AND_ORGANIZATION ( #44, #19 ) ;
#59 = VERTEX_POINT ( 'NONE', #49 ) ;
#60 = PRODUCT_RELATED_PRODUCT_CATEGORY ( 'detail', '', ( #16 ) ) ;
#61 = DIRECTION ( 'NONE',  ( -3.491481338843133355E-15, 1.224646799147353207E-16, -1.000000000000000000 ) ) ;
#62 = VERTEX_POINT ( 'NONE', #119 ) ;
#63 =( LENGTH_UNIT ( ) NAMED_UNIT ( * ) SI_UNIT ( .MILLI., .METRE. ) );
#64 = EDGE_LOOP ( 'NONE', ( #26 ) ) ;
#65 = DIRECTION ( 'NONE',  ( 3.491481338843133355E-15, -1.224646799147353207E-16, 1.000000000000000000 ) ) ;
#66 = CARTESIAN_POINT ( 'NONE',  ( 4.189777606611760026E-14, 1.844704532674101608E-32, 12.00000000000000000 ) ) ;
#67 = DIRECTION ( 'NONE',  ( -3.491481338843133355E-15, 1.224646799147353207E-16, -1.000000000000000000 ) ) ;
#68 = CARTESIAN_POINT ( 'NONE',  ( -4.404106389273916813E-31, 1.544752576141730907E-32, -1.261386203121788020E-16 ) ) ;
#69 = PERSON_AND_ORGANIZATION ( #44, #19 ) ;
#70 = FACE_OUTER_BOUND ( 'NONE', #195, .T. ) ;
#71 = PERSON_AND_ORGANIZATION ( #44, #19 ) ;
#72 = PERSON_AND_ORGANIZATION ( #44, #19 ) ;
#73 = CIRCLE ( 'NONE', #222, 2.460000000000024833 ) ;
#74 = PRODUCT_DEFINITION_SHAPE ( 'NONE', 'NONE',  #146 ) ;
#75 = EDGE_CURVE ( 'NONE', #209, #209, #35, .T. ) ;
#76 = CARTESIAN_POINT ( 'NONE',  ( 1.396592535537253145E-15, 2.460000000000024833, 0.3999999999999999667 ) ) ;
#77 = SECURITY_CLASSIFICATION_LEVEL ( 'unclassified' ) ;
#78 = ORIENTED_EDGE ( 'NONE', *, *, #199, .F. ) ;
#79 = CARTESIAN_POINT ( 'NONE',  ( 0.0000000000000000000, 0.0000000000000000000, 0.0000000000000000000 ) ) ;
#80 = PERSON_AND_ORGANIZATION_ROLE ( 'classification_officer' ) ;
#81 = AXIS2_PLACEMENT_3D ( 'NONE', #25, #65, #228 ) ;
#82 = CARTESIAN_POINT ( 'NONE',  ( -8.808212778547833626E-31, 3.089505152283461814E-32, -2.522772406243576040E-16 ) ) ;
#83 = APPROVAL_ROLE ( '' ) ;
#84 = MANIFOLD_SOLID_BREP ( 'Corps-Déplacer/Copier1[1]', #137 ) ;
#85 = DESIGN_CONTEXT ( 'detailed design', #128, 'design' ) ;
#86 = DIRECTION ( 'NONE',  ( -3.491481338843133355E-15, 1.224646799147353207E-16, -1.000000000000000000 ) ) ;
#87 = DIRECTION ( 'NONE',  ( 0.0000000000000000000, 1.000000000000000000, 0.0000000000000000000 ) ) ;
#88 = ADVANCED_FACE ( 'NONE', ( #70 ), #147, .F. ) ;
#89 = FACE_OUTER_BOUND ( 'NONE', #22, .T. ) ;
#90 = APPROVAL_STATUS ( 'not_yet_approved' ) ;
#91 = EDGE_LOOP ( 'NONE', ( #135 ) ) ;
#92 = COORDINATED_UNIVERSAL_TIME_OFFSET ( 1, 0, .AHEAD. ) ;
#93 = AXIS2_PLACEMENT_3D ( 'NONE', #53, #31, #203 ) ;
#94 = LOCAL_TIME ( 13, 56, 53.00000000000000000, #162 ) ;
#95 = VERTEX_POINT ( 'NONE', #180 ) ;
#96 = CARTESIAN_POINT ( 'NONE',  ( 2.793185071074506684E-13, -9.797174393178826052E-15, 80.00000000000000000 ) ) ;
#97 = EDGE_LOOP ( 'NONE', ( #183 ) ) ;
#98 = AXIS2_PLACEMENT_3D ( 'NONE', #79, #232, #45 ) ;
#99 =( NAMED_UNIT ( * ) SI_UNIT ( $, .STERADIAN. ) SOLID_ANGLE_UNIT ( ) );
#100 = ORIENTED_EDGE ( 'NONE', *, *, #236, .F. ) ;
#101 = FACE_BOUND ( 'NONE', #153, .T. ) ;
#102 = DIRECTION ( 'NONE',  ( -3.491481338843133355E-15, 1.224646799147353207E-16, -1.000000000000000000 ) ) ;
#103 = CARTESIAN_POINT ( 'NONE',  ( 2.793185071074506684E-13, -9.797174393178826052E-15, 80.00000000000000000 ) ) ;
#104 = DIRECTION ( 'NONE',  ( 0.0000000000000000000, 1.000000000000000000, 0.0000000000000000000 ) ) ;
#105 = PERSON_AND_ORGANIZATION ( #44, #19 ) ;
#106 = ADVANCED_FACE ( 'NONE', ( #165 ), #241, .T. ) ;
#107 = APPROVAL_ROLE ( '' ) ;
#108 = CC_DESIGN_SECURITY_CLASSIFICATION ( #133, ( #34 ) ) ;
#109 = DATE_TIME_ROLE ( 'creation_date' ) ;
#110 = EDGE_CURVE ( 'NONE', #95, #95, #118, .T. ) ;
#111 = ADVANCED_BREP_SHAPE_REPRESENTATION ( '321718', ( #84, #10, #98 ), #55 ) ;
#112 = APPROVAL_PERSON_ORGANIZATION ( #69, #231, #107 ) ;
#113 = CC_DESIGN_PERSON_AND_ORGANIZATION_ASSIGNMENT ( #154, #2, ( #34 ) ) ;
#114 = CARTESIAN_POINT ( 'NONE',  ( 2.779219145719134403E-13, 1.999999999999991340, 79.60000000000000853 ) ) ;
#115 = CYLINDRICAL_SURFACE ( 'NONE', #131, 1.999999999999996669 ) ;
#116 = CALENDAR_DATE ( 2021, 2, 12 ) ;
#117 = PERSON_AND_ORGANIZATION ( #44, #19 ) ;
#118 = CIRCLE ( 'NONE', #132, 2.460000000000024833 ) ;
#119 = CARTESIAN_POINT ( 'NONE',  ( 4.467959067949304939E-14, 1.999999999999990452, 12.79674337148173713 ) ) ;
#120 = EDGE_LOOP ( 'NONE', ( #36 ) ) ;
#121 = DIRECTION ( 'NONE',  ( 4.275831445896958607E-31, 1.000000000000000000, 1.224646799147353207E-16 ) ) ;
#122 = CARTESIAN_POINT ( 'NONE',  ( 4.189777606611760026E-14, -1.469576158976823947E-15, 12.00000000000000000 ) ) ;
#123 = DATE_AND_TIME ( #240, #148 ) ;
#124 = EDGE_LOOP ( 'NONE', ( #50 ) ) ;
#125 = DIRECTION ( 'NONE',  ( -3.491481338843133355E-15, 1.224646799147353207E-16, -1.000000000000000000 ) ) ;
#126 = AXIS2_PLACEMENT_3D ( 'NONE', #40, #179, #142 ) ;
#127 = DIRECTION ( 'NONE',  ( 0.0000000000000000000, 1.000000000000000000, 0.0000000000000000000 ) ) ;
#128 = APPLICATION_CONTEXT ( 'configuration controlled 3d designs of mechanical parts and assemblies' ) ;
#129 = APPROVAL_STATUS ( 'not_yet_approved' ) ;
#130 = ADVANCED_FACE ( 'NONE', ( #223, #51 ), #4, .T. ) ;
#131 = AXIS2_PLACEMENT_3D ( 'NONE', #134, #21, #121 ) ;
#132 = AXIS2_PLACEMENT_3D ( 'NONE', #161, #67, #127 ) ;
#133 = SECURITY_CLASSIFICATION ( '', '', #77 ) ;
#134 = CARTESIAN_POINT ( 'NONE',  ( 0.0000000000000000000, 0.0000000000000000000, 0.0000000000000000000 ) ) ;
#135 = ORIENTED_EDGE ( 'NONE', *, *, #225, .T. ) ;
#136 =( NAMED_UNIT ( * ) PLANE_ANGLE_UNIT ( ) SI_UNIT ( $, .RADIAN. ) );
#137 = CLOSED_SHELL ( 'NONE', ( #23, #3, #159, #130, #88 ) ) ;
#138 = DIRECTION ( 'NONE',  ( 3.914491756884586270E-31, 1.000000000000000000, 1.322197771323772571E-16 ) ) ;
#139 = DATE_AND_TIME ( #116, #94 ) ;
#140 = COORDINATED_UNIVERSAL_TIME_OFFSET ( 1, 0, .AHEAD. ) ;
#141 = ORIENTED_EDGE ( 'NONE', *, *, #199, .T. ) ;
#142 = DIRECTION ( 'NONE',  ( -4.275831445896958607E-31, -1.000000000000000000, -1.224646799147353207E-16 ) ) ;
#143 = DIRECTION ( 'NONE',  ( 3.491481338843133355E-15, -1.224646799147353207E-16, 1.000000000000000000 ) ) ;
#144 = DIRECTION ( 'NONE',  ( -3.491481338843133355E-15, 1.224646799147353207E-16, -1.000000000000000000 ) ) ;
#145 = DIRECTION ( 'NONE',  ( -3.491481338843133355E-15, 1.224646799147353207E-16, -1.000000000000000000 ) ) ;
#146 = PRODUCT_DEFINITION ( 'UNKNOWN', '', #34, #85 ) ;
#147 = PLANE ( 'NONE',  #156 ) ;
#148 = LOCAL_TIME ( 13, 56, 53.00000000000000000, #140 ) ;
#149 = COORDINATED_UNIVERSAL_TIME_OFFSET ( 1, 0, .AHEAD. ) ;
#150 = APPROVAL_STATUS ( 'not_yet_approved' ) ;
#151 = APPROVAL ( #90, 'UNSPECIFIED' ) ;
#152 = ADVANCED_FACE ( 'NONE', ( #200, #235 ), #187, .T. ) ;
#153 = EDGE_LOOP ( 'NONE', ( #8 ) ) ;
#154 = PERSON_AND_ORGANIZATION ( #44, #19 ) ;
#155 = CC_DESIGN_PERSON_AND_ORGANIZATION_ASSIGNMENT ( #72, #220, ( #146 ) ) ;
#156 = AXIS2_PLACEMENT_3D ( 'NONE', #238, #145, #239 ) ;
#157 = EDGE_LOOP ( 'NONE', ( #42 ) ) ;
#158 = CARTESIAN_POINT ( 'NONE',  ( 4.467959067949304939E-14, -1.567149080939521902E-15, 12.79674337148173713 ) ) ;
#159 = ADVANCED_FACE ( 'NONE', ( #1, #214 ), #115, .T. ) ;
#160 = FACE_OUTER_BOUND ( 'NONE', #120, .T. ) ;
#161 = CARTESIAN_POINT ( 'NONE',  ( 4.189777606611760026E-14, -1.469576158976823947E-15, 12.00000000000000000 ) ) ;
#162 = COORDINATED_UNIVERSAL_TIME_OFFSET ( 1, 0, .AHEAD. ) ;
#163 = ORIENTED_EDGE ( 'NONE', *, *, #7, .F. ) ;
#164 = CIRCLE ( 'NONE', #12, 2.060000000000023146 ) ;
#165 = FACE_OUTER_BOUND ( 'NONE', #64, .T. ) ;
#166 = DIRECTION ( 'NONE',  ( -3.491481338843133355E-15, 1.224646799147353207E-16, -1.000000000000000000 ) ) ;
#167 = CC_DESIGN_APPROVAL ( #151, ( #133 ) ) ;
#168 = CALENDAR_DATE ( 2021, 2, 12 ) ;
#169 = COORDINATED_UNIVERSAL_TIME_OFFSET ( 1, 0, .AHEAD. ) ;
#170 = AXIS2_PLACEMENT_3D ( 'NONE', #103, #144, #184 ) ;
#171 = SHAPE_DEFINITION_REPRESENTATION ( #74, #111 ) ;
#172 = AXIS2_PLACEMENT_3D ( 'NONE', #29, #102, #14 ) ;
#173 = CC_DESIGN_DATE_AND_TIME_ASSIGNMENT ( #139, #27, ( #133 ) ) ;
#174 = APPROVAL_PERSON_ORGANIZATION ( #71, #15, #83 ) ;
#175 = ADVANCED_FACE ( 'NONE', ( #234, #101 ), #230, .T. ) ;
#176 = VERTEX_POINT ( 'NONE', #76 ) ;
#177 = APPLICATION_CONTEXT ( 'configuration controlled 3d designs of mechanical parts and assemblies' ) ;
#178 = EDGE_LOOP ( 'NONE', ( #213 ) ) ;
#179 = DIRECTION ( 'NONE',  ( 3.491481338843133355E-15, -1.224646799147353207E-16, 1.000000000000000000 ) ) ;
#180 = CARTESIAN_POINT ( 'NONE',  ( 4.189777606611760026E-14, 2.460000000000023501, 12.00000000000000000 ) ) ;
#181 = UNCERTAINTY_MEASURE_WITH_UNIT (LENGTH_MEASURE( 1.000000000000000082E-05 ), #63, 'distance_accuracy_value', 'NONE');
#182 = DIRECTION ( 'NONE',  ( 0.0000000000000000000, 1.000000000000000000, 0.0000000000000000000 ) ) ;
#183 = ORIENTED_EDGE ( 'NONE', *, *, #225, .F. ) ;
#184 = DIRECTION ( 'NONE',  ( 0.0000000000000000000, 1.000000000000000000, 0.0000000000000000000 ) ) ;
#185 = APPROVAL_PERSON_ORGANIZATION ( #58, #151, #18 ) ;
#186 = CONICAL_SURFACE ( 'NONE', #6, 2.460000000000024833, 0.5235987755983005920 ) ;
#187 = CYLINDRICAL_SURFACE ( 'NONE', #93, 2.460000000000024833 ) ;
#188 = ADVANCED_FACE ( 'NONE', ( #160 ), #192, .T. ) ;
#189 = APPLICATION_PROTOCOL_DEFINITION ( 'international standard', 'config_control_design', 1994, #128 ) ;
#190 = DATE_AND_TIME ( #243, #24 ) ;
#191 = EDGE_CURVE ( 'NONE', #5, #5, #164, .T. ) ;
#192 = PLANE ( 'NONE',  #81 ) ;
#193 = MECHANICAL_CONTEXT ( 'NONE', #177, 'mechanical' ) ;
#194 = AXIS2_PLACEMENT_3D ( 'NONE', #68, #125, #219 ) ;
#195 = EDGE_LOOP ( 'NONE', ( #78 ) ) ;
#196 = DIRECTION ( 'NONE',  ( 0.0000000000000000000, 1.000000000000000000, 0.0000000000000000000 ) ) ;
#197 = CARTESIAN_POINT ( 'NONE',  ( 1.396592535537252159E-15, -4.898587196589408145E-17, 0.3999999999999996336 ) ) ;
#198 = DIRECTION ( 'NONE',  ( -3.491481338843133355E-15, 1.224646799147353207E-16, -1.000000000000000000 ) ) ;
#199 = EDGE_CURVE ( 'NONE', #20, #20, #205, .T. ) ;
#200 = FACE_OUTER_BOUND ( 'NONE', #215, .T. ) ;
#201 = CC_DESIGN_APPROVAL ( #15, ( #34 ) ) ;
#202 = DIRECTION ( 'NONE',  ( -4.275831445896958607E-31, -1.000000000000000000, -1.224646799147353207E-16 ) ) ;
#203 = DIRECTION ( 'NONE',  ( 4.275831445896958607E-31, 1.000000000000000000, 1.224646799147353207E-16 ) ) ;
#204 = DATE_AND_TIME ( #168, #30 ) ;
#205 = CIRCLE ( 'NONE', #39, 1.600000000000000977 ) ;
#206 = CC_DESIGN_PERSON_AND_ORGANIZATION_ASSIGNMENT ( #117, #28, ( #34 ) ) ;
#207 = AXIS2_PLACEMENT_3D ( 'NONE', #158, #47, #182 ) ;
#208 = EDGE_LOOP ( 'NONE', ( #163 ) ) ;
#209 = VERTEX_POINT ( 'NONE', #114 ) ;
#210 = ORIENTED_EDGE ( 'NONE', *, *, #7, .T. ) ;
#211 = APPLICATION_PROTOCOL_DEFINITION ( 'international standard', 'config_control_design', 1994, #177 ) ;
#212 = CARTESIAN_POINT ( 'NONE',  ( 0.0000000000000000000, 2.060000000000023146, 0.0000000000000000000 ) ) ;
#213 = ORIENTED_EDGE ( 'NONE', *, *, #236, .T. ) ;
#214 = FACE_OUTER_BOUND ( 'NONE', #124, .T. ) ;
#215 = EDGE_LOOP ( 'NONE', ( #46 ) ) ;
#216 = AXIS2_PLACEMENT_3D ( 'NONE', #66, #143, #202 ) ;
#217 = AXIS2_PLACEMENT_3D ( 'NONE', #11, #166, #87 ) ;
#218 = FACE_OUTER_BOUND ( 'NONE', #208, .T. ) ;
#219 = DIRECTION ( 'NONE',  ( 4.275831445896958607E-31, 1.000000000000000000, 1.224646799147353207E-16 ) ) ;
#220 = PERSON_AND_ORGANIZATION_ROLE ( 'creator' ) ;
#221 = APPROVAL_DATE_TIME ( #123, #15 ) ;
#222 = AXIS2_PLACEMENT_3D ( 'NONE', #197, #61, #138 ) ;
#223 = FACE_OUTER_BOUND ( 'NONE', #157, .T. ) ;
#224 = APPROVAL_DATE_TIME ( #190, #151 ) ;
#225 = EDGE_CURVE ( 'NONE', #176, #176, #73, .T. ) ;
#226 = CC_DESIGN_PERSON_AND_ORGANIZATION_ASSIGNMENT ( #229, #80, ( #133 ) ) ;
#227 = DATE_AND_TIME ( #33, #237 ) ;
#228 = DIRECTION ( 'NONE',  ( -4.275831445896958607E-31, -1.000000000000000000, -1.224646799147353207E-16 ) ) ;
#229 = PERSON_AND_ORGANIZATION ( #44, #19 ) ;
#230 = CONICAL_SURFACE ( 'NONE', #126, 2.060000000000023146, 0.7853981633974502774 ) ;
#231 = APPROVAL ( #129, 'UNSPECIFIED' ) ;
#232 = DIRECTION ( 'NONE',  ( 0.0000000000000000000, 0.0000000000000000000, 1.000000000000000000 ) ) ;
#233 = CARTESIAN_POINT ( 'NONE',  ( 2.793185071074506684E-13, 1.599999999999991207, 80.00000000000000000 ) ) ;
#234 = FACE_OUTER_BOUND ( 'NONE', #91, .T. ) ;
#235 = FACE_OUTER_BOUND ( 'NONE', #97, .T. ) ;
#236 = EDGE_CURVE ( 'NONE', #62, #62, #17, .T. ) ;
#237 = LOCAL_TIME ( 13, 56, 53.00000000000000000, #149 ) ;
#238 = CARTESIAN_POINT ( 'NONE',  ( 2.793185071074506684E-13, 1.199807826129472128E-32, 80.00000000000000000 ) ) ;
#239 = DIRECTION ( 'NONE',  ( 4.275831445896958607E-31, 1.000000000000000000, 1.224646799147353207E-16 ) ) ;
#240 = CALENDAR_DATE ( 2021, 2, 12 ) ;
#241 = PLANE ( 'NONE',  #194 ) ;
#242 = APPROVAL_DATE_TIME ( #204, #231 ) ;
#243 = CALENDAR_DATE ( 2021, 2, 12 ) ;
ENDSEC;
END-ISO-10303-21;
