ISO-10303-21;
HEADER;
FILE_DESCRIPTION (( 'STEP AP203' ),
    '1' );
FILE_NAME ('321717.step',
    '2021-12-02T12:56:53',
    ( '' ),
    ( '' ),
    'SwSTEP 2.0',
    'SolidWorks 2019',
    '' );
FILE_SCHEMA (( 'CONFIG_CONTROL_DESIGN' ));
ENDSEC;

DATA;
#1 = LOCAL_TIME ( 13, 56, 53.00000000000000000, #194 ) ;
#2 = CYLINDRICAL_SURFACE ( 'NONE', #127, 1.999999999999996669 ) ;
#3 = CARTESIAN_POINT ( 'NONE',  ( 4.189777606611760026E-14, -1.469576158976823947E-15, 12.00000000000000000 ) ) ;
#4 = CYLINDRICAL_SURFACE ( 'NONE', #196, 2.455000000000024940 ) ;
#5 = VERTEX_POINT ( 'NONE', #171 ) ;
#6 = CC_DESIGN_PERSON_AND_ORGANIZATION_ASSIGNMENT ( #218, #177, ( #45 ) ) ;
#7 = VERTEX_POINT ( 'NONE', #150 ) ;
#8 = DATE_AND_TIME ( #27, #1 ) ;
#9 = CC_DESIGN_APPROVAL ( #151, ( #134 ) ) ;
#10 = ADVANCED_FACE ( 'NONE', ( #230, #109 ), #87, .T. ) ;
#11 = MANIFOLD_SOLID_BREP ( 'Corps-Déplacer/Copier1[1]', #172 ) ;
#12 = DATE_TIME_ROLE ( 'classification_date' ) ;
#13 = ORIENTED_EDGE ( 'NONE', *, *, #15, .F. ) ;
#14 = ORIENTED_EDGE ( 'NONE', *, *, #155, .T. ) ;
#15 = EDGE_CURVE ( 'NONE', #5, #5, #185, .T. ) ;
#16 = EDGE_LOOP ( 'NONE', ( #13 ) ) ;
#17 = PRODUCT ( '321717', '321717', '', ( #80 ) ) ;
#18 = DIRECTION ( 'NONE',  ( 0.0000000000000000000, 1.000000000000000000, 0.0000000000000000000 ) ) ;
#19 = FACE_OUTER_BOUND ( 'NONE', #236, .T. ) ;
#20 = CONICAL_SURFACE ( 'NONE', #96, 2.055000000000023253, 0.7853981633974502774 ) ;
#21 = FACE_OUTER_BOUND ( 'NONE', #99, .T. ) ;
#22 = DIRECTION ( 'NONE',  ( -4.275831445896958607E-31, -1.000000000000000000, -1.224646799147353207E-16 ) ) ;
#23 = DIRECTION ( 'NONE',  ( 0.0000000000000000000, 1.000000000000000000, 0.0000000000000000000 ) ) ;
#24 = PERSON_AND_ORGANIZATION ( #220, #223 ) ;
#25 = APPROVAL_DATE_TIME ( #8, #28 ) ;
#26 = CARTESIAN_POINT ( 'NONE',  ( 4.189777606611760026E-14, -1.469576158976823947E-15, 12.00000000000000000 ) ) ;
#27 = CALENDAR_DATE ( 2021, 2, 12 ) ;
#28 = APPROVAL ( #112, 'UNSPECIFIED' ) ;
#29 = DIRECTION ( 'NONE',  ( 0.0000000000000000000, 1.000000000000000000, 0.0000000000000000000 ) ) ;
#30 = AXIS2_PLACEMENT_3D ( 'NONE', #55, #163, #225 ) ;
#31 = PERSON_AND_ORGANIZATION_ROLE ( 'design_supplier' ) ;
#32 = DATE_AND_TIME ( #66, #162 ) ;
#33 = EDGE_LOOP ( 'NONE', ( #158 ) ) ;
#34 = EDGE_LOOP ( 'NONE', ( #221 ) ) ;
#35 = FACE_OUTER_BOUND ( 'NONE', #16, .T. ) ;
#36 = CARTESIAN_POINT ( 'NONE',  ( -8.786833621318350664E-31, 3.082006353370152471E-32, -2.516649172247839658E-16 ) ) ;
#37 = DIRECTION ( 'NONE',  ( 3.491481338843133355E-15, -1.224646799147353207E-16, 1.000000000000000000 ) ) ;
#38 = AXIS2_PLACEMENT_3D ( 'NONE', #209, #188, #77 ) ;
#39 = CC_DESIGN_APPROVAL ( #57, ( #45 ) ) ;
#40 = DIRECTION ( 'NONE',  ( -3.491481338843133355E-15, 1.224646799147353207E-16, -1.000000000000000000 ) ) ;
#41 = EDGE_CURVE ( 'NONE', #44, #44, #203, .T. ) ;
#42 = VERTEX_POINT ( 'NONE', #62 ) ;
#43 = LOCAL_TIME ( 13, 56, 53.00000000000000000, #212 ) ;
#44 = VERTEX_POINT ( 'NONE', #63 ) ;
#45 = SECURITY_CLASSIFICATION ( '', '', #98 ) ;
#46 = CARTESIAN_POINT ( 'NONE',  ( 4.189777606611760026E-14, 2.455000000000023608, 12.00000000000000000 ) ) ;
#47 = DATE_TIME_ROLE ( 'creation_date' ) ;
#48 = ADVANCED_FACE ( 'NONE', ( #35 ), #105, .F. ) ;
#49 = APPROVAL_DATE_TIME ( #197, #151 ) ;
#50 = EDGE_LOOP ( 'NONE', ( #180 ) ) ;
#51 = PERSON_AND_ORGANIZATION_ROLE ( 'creator' ) ;
#52 = EDGE_LOOP ( 'NONE', ( #14 ) ) ;
#53 = FACE_OUTER_BOUND ( 'NONE', #34, .T. ) ;
#54 = DIRECTION ( 'NONE',  ( 0.0000000000000000000, 1.000000000000000000, 0.0000000000000000000 ) ) ;
#55 = CARTESIAN_POINT ( 'NONE',  ( 4.189777606611760026E-14, 1.840955133217446936E-32, 12.00000000000000000 ) ) ;
#56 = DIRECTION ( 'NONE',  ( -3.491481338843133355E-15, 1.224646799147353207E-16, -1.000000000000000000 ) ) ;
#57 = APPROVAL ( #120, 'UNSPECIFIED' ) ;
#58 = DIRECTION ( 'NONE',  ( -3.491481338843133355E-15, 1.224646799147353207E-16, -1.000000000000000000 ) ) ;
#59 = CIRCLE ( 'NONE', #108, 2.455000000000024940 ) ;
#60 = CALENDAR_DATE ( 2021, 2, 12 ) ;
#61 = CLOSED_SHELL ( 'NONE', ( #147, #169, #100, #82 ) ) ;
#62 = CARTESIAN_POINT ( 'NONE',  ( 4.464935356413027435E-14, 1.999999999999990452, 12.78808311744389314 ) ) ;
#63 = CARTESIAN_POINT ( 'NONE',  ( 2.779219145719134403E-13, 1.999999999999991340, 79.60000000000000853 ) ) ;
#64 = APPROVAL_DATE_TIME ( #32, #57 ) ;
#65 = CIRCLE ( 'NONE', #152, 2.455000000000024940 ) ;
#66 = CALENDAR_DATE ( 2021, 2, 12 ) ;
#67 = CIRCLE ( 'NONE', #219, 2.455000000000024940 ) ;
#68 = COORDINATED_UNIVERSAL_TIME_OFFSET ( 1, 0, .AHEAD. ) ;
#69 = EDGE_LOOP ( 'NONE', ( #139 ) ) ;
#70 = ORIENTED_EDGE ( 'NONE', *, *, #41, .T. ) ;
#71 = CARTESIAN_POINT ( 'NONE',  ( 0.0000000000000000000, 0.0000000000000000000, 0.0000000000000000000 ) ) ;
#72 = AXIS2_PLACEMENT_3D ( 'NONE', #187, #40, #102 ) ;
#73 = DIRECTION ( 'NONE',  ( -3.491481338843133355E-15, 1.224646799147353207E-16, -1.000000000000000000 ) ) ;
#74 = PRODUCT_DEFINITION_SHAPE ( 'NONE', 'NONE',  #107 ) ;
#75 = EDGE_CURVE ( 'NONE', #7, #7, #200, .T. ) ;
#76 = DIRECTION ( 'NONE',  ( -3.491481338843133355E-15, 1.224646799147353207E-16, -1.000000000000000000 ) ) ;
#77 = DIRECTION ( 'NONE',  ( 0.0000000000000000000, 1.000000000000000000, 0.0000000000000000000 ) ) ;
#78 = VERTEX_POINT ( 'NONE', #170 ) ;
#79 = APPROVAL_PERSON_ORGANIZATION ( #24, #151, #231 ) ;
#80 = MECHANICAL_CONTEXT ( 'NONE', #133, 'mechanical' ) ;
#81 = PERSON_AND_ORGANIZATION ( #220, #223 ) ;
#82 = ADVANCED_FACE ( 'NONE', ( #242, #128 ), #20, .T. ) ;
#83 = EDGE_LOOP ( 'NONE', ( #181 ) ) ;
#84 = AXIS2_PLACEMENT_3D ( 'NONE', #205, #58, #106 ) ;
#85 = MANIFOLD_SOLID_BREP ( 'Corps-Déplacer/Copier1[2]', #61 ) ;
#86 = CARTESIAN_POINT ( 'NONE',  ( 4.464935356413027435E-14, -1.566088505700797055E-15, 12.78808311744389314 ) ) ;
#87 = CONICAL_SURFACE ( 'NONE', #38, 1.600000000000000977, 0.7853981633974512766 ) ;
#88 = DIRECTION ( 'NONE',  ( 4.275831445896958607E-31, 1.000000000000000000, 1.224646799147353207E-16 ) ) ;
#89 = CARTESIAN_POINT ( 'NONE',  ( -8.786833621318350664E-31, 3.082006353370152471E-32, -2.516649172247839658E-16 ) ) ;
#90 = PLANE ( 'NONE',  #72 ) ;
#91 = DIRECTION ( 'NONE',  ( -4.275831445896957731E-31, -1.000000000000000000, -1.224646799147353454E-16 ) ) ;
#92 = APPROVAL_STATUS ( 'not_yet_approved' ) ;
#93 = FACE_BOUND ( 'NONE', #138, .T. ) ;
#94 = VERTEX_POINT ( 'NONE', #174 ) ;
#95 = AXIS2_PLACEMENT_3D ( 'NONE', #190, #213, #211 ) ;
#96 = AXIS2_PLACEMENT_3D ( 'NONE', #89, #183, #91 ) ;
#97 = DATE_AND_TIME ( #215, #144 ) ;
#98 = SECURITY_CLASSIFICATION_LEVEL ( 'unclassified' ) ;
#99 = EDGE_LOOP ( 'NONE', ( #70 ) ) ;
#100 = ADVANCED_FACE ( 'NONE', ( #125 ), #90, .T. ) ;
#101 = ORIENTED_EDGE ( 'NONE', *, *, #226, .F. ) ;
#102 = DIRECTION ( 'NONE',  ( 4.275831445896958607E-31, 1.000000000000000000, 1.224646799147353207E-16 ) ) ;
#103 = CC_DESIGN_PERSON_AND_ORGANIZATION_ASSIGNMENT ( #240, #51, ( #134 ) ) ;
#104 = DIRECTION ( 'NONE',  ( 0.0000000000000000000, 1.000000000000000000, 0.0000000000000000000 ) ) ;
#105 = PLANE ( 'NONE',  #178 ) ;
#106 = DIRECTION ( 'NONE',  ( 0.0000000000000000000, 1.000000000000000000, 0.0000000000000000000 ) ) ;
#107 = PRODUCT_DEFINITION ( 'UNKNOWN', '', #134, #175 ) ;
#108 = AXIS2_PLACEMENT_3D ( 'NONE', #142, #224, #160 ) ;
#109 = FACE_BOUND ( 'NONE', #121, .T. ) ;
#110 = DIRECTION ( 'NONE',  ( -3.491481338843133355E-15, 1.224646799147353207E-16, -1.000000000000000000 ) ) ;
#111 = APPLICATION_PROTOCOL_DEFINITION ( 'international standard', 'config_control_design', 1994, #133 ) ;
#112 = APPROVAL_STATUS ( 'not_yet_approved' ) ;
#113 = CIRCLE ( 'NONE', #193, 1.999999999999992228 ) ;
#114 = UNCERTAINTY_MEASURE_WITH_UNIT (LENGTH_MEASURE( 1.000000000000000082E-05 ), #135, 'distance_accuracy_value', 'NONE');
#115 = COORDINATED_UNIVERSAL_TIME_OFFSET ( 1, 0, .AHEAD. ) ;
#116 = CALENDAR_DATE ( 2021, 2, 12 ) ;
#117 = ORIENTED_EDGE ( 'NONE', *, *, #15, .T. ) ;
#118 = SHAPE_DEFINITION_REPRESENTATION ( #74, #173 ) ;
#119 = ORIENTED_EDGE ( 'NONE', *, *, #140, .T. ) ;
#120 = APPROVAL_STATUS ( 'not_yet_approved' ) ;
#121 = EDGE_LOOP ( 'NONE', ( #117 ) ) ;
#122 = AXIS2_PLACEMENT_3D ( 'NONE', #26, #110, #29 ) ;
#123 = PLANE ( 'NONE',  #30 ) ;
#124 = EDGE_CURVE ( 'NONE', #131, #131, #65, .T. ) ;
#125 = FACE_OUTER_BOUND ( 'NONE', #33, .T. ) ;
#126 = CC_DESIGN_SECURITY_CLASSIFICATION ( #45, ( #134 ) ) ;
#127 = AXIS2_PLACEMENT_3D ( 'NONE', #71, #56, #129 ) ;
#128 = FACE_BOUND ( 'NONE', #69, .T. ) ;
#129 = DIRECTION ( 'NONE',  ( 4.275831445896958607E-31, 1.000000000000000000, 1.224646799147353207E-16 ) ) ;
#130 = DIRECTION ( 'NONE',  ( -3.491481338843133355E-15, 1.224646799147353207E-16, -1.000000000000000000 ) ) ;
#131 = VERTEX_POINT ( 'NONE', #46 ) ;
#132 =( NAMED_UNIT ( * ) SI_UNIT ( $, .STERADIAN. ) SOLID_ANGLE_UNIT ( ) );
#133 = APPLICATION_CONTEXT ( 'configuration controlled 3d designs of mechanical parts and assemblies' ) ;
#134 = PRODUCT_DEFINITION_FORMATION_WITH_SPECIFIED_SOURCE ( 'ANY', '', #17, .NOT_KNOWN. ) ;
#135 =( LENGTH_UNIT ( ) NAMED_UNIT ( * ) SI_UNIT ( .MILLI., .METRE. ) );
#136 = COORDINATED_UNIVERSAL_TIME_OFFSET ( 1, 0, .AHEAD. ) ;
#137 = DATE_AND_TIME ( #116, #179 ) ;
#138 = EDGE_LOOP ( 'NONE', ( #119 ) ) ;
#139 = ORIENTED_EDGE ( 'NONE', *, *, #75, .F. ) ;
#140 = EDGE_CURVE ( 'NONE', #42, #42, #113, .T. ) ;
#141 = ORIENTED_EDGE ( 'NONE', *, *, #140, .F. ) ;
#142 = CARTESIAN_POINT ( 'NONE',  ( 1.396592535537252159E-15, -4.898587196589408145E-17, 0.3999999999999996336 ) ) ;
#143 = CARTESIAN_POINT ( 'NONE',  ( 2.793185071074506684E-13, 1.199807826129472128E-32, 80.00000000000000000 ) ) ;
#144 = LOCAL_TIME ( 13, 56, 53.00000000000000000, #136 ) ;
#145 = CARTESIAN_POINT ( 'NONE',  ( 4.189777606611760026E-14, 1.840955133217446936E-32, 12.00000000000000000 ) ) ;
#146 = FACE_OUTER_BOUND ( 'NONE', #50, .T. ) ;
#147 = ADVANCED_FACE ( 'NONE', ( #146, #19 ), #4, .T. ) ;
#148 = DIRECTION ( 'NONE',  ( -3.491481338843133355E-15, 1.224646799147353207E-16, -1.000000000000000000 ) ) ;
#149 = PRODUCT_RELATED_PRODUCT_CATEGORY ( 'detail', '', ( #17 ) ) ;
#150 = CARTESIAN_POINT ( 'NONE',  ( -1.710569414459005214E-46, 2.055000000000023253, 0.0000000000000000000 ) ) ;
#151 = APPROVAL ( #92, 'UNSPECIFIED' ) ;
#152 = AXIS2_PLACEMENT_3D ( 'NONE', #206, #148, #18 ) ;
#153 = AXIS2_PLACEMENT_3D ( 'NONE', #36, #243, #184 ) ;
#154 = FACE_OUTER_BOUND ( 'NONE', #83, .T. ) ;
#155 = EDGE_CURVE ( 'NONE', #78, #78, #59, .T. ) ;
#156 = PERSON_AND_ORGANIZATION ( #220, #223 ) ;
#157 = PERSON_AND_ORGANIZATION ( #220, #223 ) ;
#158 = ORIENTED_EDGE ( 'NONE', *, *, #75, .T. ) ;
#159 = ORIENTED_EDGE ( 'NONE', *, *, #41, .F. ) ;
#160 = DIRECTION ( 'NONE',  ( 3.922464245187813016E-31, 1.000000000000000000, 1.324890638475144790E-16 ) ) ;
#161 = PLANE ( 'NONE',  #241 ) ;
#162 = LOCAL_TIME ( 13, 56, 53.00000000000000000, #68 ) ;
#163 = DIRECTION ( 'NONE',  ( 3.491481338843133355E-15, -1.224646799147353207E-16, 1.000000000000000000 ) ) ;
#164 = ADVANCED_FACE ( 'NONE', ( #53 ), #161, .F. ) ;
#165 = DIRECTION ( 'NONE',  ( -3.491481338843133355E-15, 1.224646799147353207E-16, -1.000000000000000000 ) ) ;
#166 = APPLICATION_CONTEXT ( 'configuration controlled 3d designs of mechanical parts and assemblies' ) ;
#167 = CONICAL_SURFACE ( 'NONE', #122, 2.455000000000024940, 0.5235987755983001479 ) ;
#168 = CARTESIAN_POINT ( 'NONE',  ( 2.779219145719134403E-13, -9.748188521212932624E-15, 79.60000000000000853 ) ) ;
#169 = ADVANCED_FACE ( 'NONE', ( #228 ), #123, .T. ) ;
#170 = CARTESIAN_POINT ( 'NONE',  ( 1.396592535537253145E-15, 2.455000000000024940, 0.3999999999999999667 ) ) ;
#171 = CARTESIAN_POINT ( 'NONE',  ( 2.793185071074506684E-13, 1.599999999999991207, 80.00000000000000000 ) ) ;
#172 = CLOSED_SHELL ( 'NONE', ( #164, #235, #182, #10, #48 ) ) ;
#173 = ADVANCED_BREP_SHAPE_REPRESENTATION ( '321717', ( #11, #85, #95 ), #176 ) ;
#174 = CARTESIAN_POINT ( 'NONE',  ( 4.189777606611760026E-14, 2.455000000000023608, 12.00000000000000000 ) ) ;
#175 = DESIGN_CONTEXT ( 'detailed design', #166, 'design' ) ;
#176 =( GEOMETRIC_REPRESENTATION_CONTEXT ( 3 ) GLOBAL_UNCERTAINTY_ASSIGNED_CONTEXT ( ( #114 ) ) GLOBAL_UNIT_ASSIGNED_CONTEXT ( ( #135, #195, #132 ) ) REPRESENTATION_CONTEXT ( 'NONE', 'WORKASPACE' ) );
#177 = PERSON_AND_ORGANIZATION_ROLE ( 'classification_officer' ) ;
#178 = AXIS2_PLACEMENT_3D ( 'NONE', #143, #130, #88 ) ;
#179 = LOCAL_TIME ( 13, 56, 53.00000000000000000, #115 ) ;
#180 = ORIENTED_EDGE ( 'NONE', *, *, #226, .T. ) ;
#181 = ORIENTED_EDGE ( 'NONE', *, *, #124, .F. ) ;
#182 = ADVANCED_FACE ( 'NONE', ( #186, #21 ), #2, .T. ) ;
#183 = DIRECTION ( 'NONE',  ( 3.491481338843133355E-15, -1.224646799147353207E-16, 1.000000000000000000 ) ) ;
#184 = DIRECTION ( 'NONE',  ( 4.275831445896958607E-31, 1.000000000000000000, 1.224646799147353454E-16 ) ) ;
#185 = CIRCLE ( 'NONE', #84, 1.600000000000000977 ) ;
#186 = FACE_OUTER_BOUND ( 'NONE', #202, .T. ) ;
#187 = CARTESIAN_POINT ( 'NONE',  ( -4.393416810659175332E-31, 1.541003176685076236E-32, -1.258324586123919829E-16 ) ) ;
#188 = DIRECTION ( 'NONE',  ( -3.491481338843133355E-15, 1.224646799147353207E-16, -1.000000000000000000 ) ) ;
#189 = CC_DESIGN_PERSON_AND_ORGANIZATION_ASSIGNMENT ( #192, #191, ( #17 ) ) ;
#190 = CARTESIAN_POINT ( 'NONE',  ( 0.0000000000000000000, 0.0000000000000000000, 0.0000000000000000000 ) ) ;
#191 = PERSON_AND_ORGANIZATION_ROLE ( 'design_owner' ) ;
#192 = PERSON_AND_ORGANIZATION ( #220, #223 ) ;
#193 = AXIS2_PLACEMENT_3D ( 'NONE', #86, #210, #104 ) ;
#194 = COORDINATED_UNIVERSAL_TIME_OFFSET ( 1, 0, .AHEAD. ) ;
#195 =( NAMED_UNIT ( * ) PLANE_ANGLE_UNIT ( ) SI_UNIT ( $, .RADIAN. ) );
#196 = AXIS2_PLACEMENT_3D ( 'NONE', #208, #76, #227 ) ;
#197 = DATE_AND_TIME ( #60, #43 ) ;
#198 = CC_DESIGN_DATE_AND_TIME_ASSIGNMENT ( #97, #47, ( #107 ) ) ;
#199 = AXIS2_PLACEMENT_3D ( 'NONE', #168, #73, #23 ) ;
#200 = CIRCLE ( 'NONE', #153, 2.055000000000023253 ) ;
#201 = EDGE_LOOP ( 'NONE', ( #159 ) ) ;
#202 = EDGE_LOOP ( 'NONE', ( #141 ) ) ;
#203 = CIRCLE ( 'NONE', #199, 2.000000000000000888 ) ;
#204 = EDGE_LOOP ( 'NONE', ( #101 ) ) ;
#205 = CARTESIAN_POINT ( 'NONE',  ( 2.793185071074506684E-13, -9.797174393178826052E-15, 80.00000000000000000 ) ) ;
#206 = CARTESIAN_POINT ( 'NONE',  ( 4.189777606611760026E-14, -1.469576158976823947E-15, 12.00000000000000000 ) ) ;
#207 = CC_DESIGN_PERSON_AND_ORGANIZATION_ASSIGNMENT ( #157, #31, ( #134 ) ) ;
#208 = CARTESIAN_POINT ( 'NONE',  ( 0.0000000000000000000, 0.0000000000000000000, 0.0000000000000000000 ) ) ;
#209 = CARTESIAN_POINT ( 'NONE',  ( 2.793185071074506684E-13, -9.797174393178826052E-15, 80.00000000000000000 ) ) ;
#210 = DIRECTION ( 'NONE',  ( -3.491481338843133355E-15, 1.224646799147353207E-16, -1.000000000000000000 ) ) ;
#211 = DIRECTION ( 'NONE',  ( 1.000000000000000000, 0.0000000000000000000, 0.0000000000000000000 ) ) ;
#212 = COORDINATED_UNIVERSAL_TIME_OFFSET ( 1, 0, .AHEAD. ) ;
#213 = DIRECTION ( 'NONE',  ( 0.0000000000000000000, 0.0000000000000000000, 1.000000000000000000 ) ) ;
#214 = APPLICATION_PROTOCOL_DEFINITION ( 'international standard', 'config_control_design', 1994, #166 ) ;
#215 = CALENDAR_DATE ( 2021, 2, 12 ) ;
#216 = APPROVAL_PERSON_ORGANIZATION ( #222, #57, #237 ) ;
#217 = CC_DESIGN_APPROVAL ( #28, ( #107 ) ) ;
#218 = PERSON_AND_ORGANIZATION ( #220, #223 ) ;
#219 = AXIS2_PLACEMENT_3D ( 'NONE', #3, #165, #54 ) ;
#220 = PERSON ( 'UNSPECIFIED', 'UNSPECIFIED', 'UNSPECIFIED', ('UNSPECIFIED'), ('UNSPECIFIED'), ('UNSPECIFIED') ) ;
#221 = ORIENTED_EDGE ( 'NONE', *, *, #124, .T. ) ;
#222 = PERSON_AND_ORGANIZATION ( #220, #223 ) ;
#223 = ORGANIZATION ( 'UNSPECIFIED', 'UNSPECIFIED', '' ) ;
#224 = DIRECTION ( 'NONE',  ( -3.491481338843133355E-15, 1.224646799147353207E-16, -1.000000000000000000 ) ) ;
#225 = DIRECTION ( 'NONE',  ( -4.275831445896958607E-31, -1.000000000000000000, -1.224646799147353207E-16 ) ) ;
#226 = EDGE_CURVE ( 'NONE', #94, #94, #67, .T. ) ;
#227 = DIRECTION ( 'NONE',  ( 4.275831445896958607E-31, 1.000000000000000000, 1.224646799147353207E-16 ) ) ;
#228 = FACE_OUTER_BOUND ( 'NONE', #204, .T. ) ;
#229 = CC_DESIGN_PERSON_AND_ORGANIZATION_ASSIGNMENT ( #156, #234, ( #107 ) ) ;
#230 = FACE_OUTER_BOUND ( 'NONE', #201, .T. ) ;
#231 = APPROVAL_ROLE ( '' ) ;
#232 = APPROVAL_ROLE ( '' ) ;
#233 = CC_DESIGN_DATE_AND_TIME_ASSIGNMENT ( #137, #12, ( #45 ) ) ;
#234 = PERSON_AND_ORGANIZATION_ROLE ( 'creator' ) ;
#235 = ADVANCED_FACE ( 'NONE', ( #93, #154 ), #167, .T. ) ;
#236 = EDGE_LOOP ( 'NONE', ( #238 ) ) ;
#237 = APPROVAL_ROLE ( '' ) ;
#238 = ORIENTED_EDGE ( 'NONE', *, *, #155, .F. ) ;
#239 = APPROVAL_PERSON_ORGANIZATION ( #81, #28, #232 ) ;
#240 = PERSON_AND_ORGANIZATION ( #220, #223 ) ;
#241 = AXIS2_PLACEMENT_3D ( 'NONE', #145, #37, #22 ) ;
#242 = FACE_OUTER_BOUND ( 'NONE', #52, .T. ) ;
#243 = DIRECTION ( 'NONE',  ( -3.491481338843133355E-15, 1.224646799147353207E-16, -1.000000000000000000 ) ) ;
ENDSEC;
END-ISO-10303-21;
