ISO-10303-21;
HEADER;
FILE_DESCRIPTION (( 'STEP AP203' ),
    '1' );
FILE_NAME ('321716.step',
    '2021-12-02T12:56:52',
    ( '' ),
    ( '' ),
    'SwSTEP 2.0',
    'SolidWorks 2019',
    '' );
FILE_SCHEMA (( 'CONFIG_CONTROL_DESIGN' ));
ENDSEC;

DATA;
#1 = CARTESIAN_POINT ( 'NONE',  ( 2.793185071074506684E-13, 1.599999999999991207, 80.00000000000000000 ) ) ;
#2 = PRODUCT_DEFINITION ( 'UNKNOWN', '', #72, #134 ) ;
#3 = EDGE_LOOP ( 'NONE', ( #132 ) ) ;
#4 = AXIS2_PLACEMENT_3D ( 'NONE', #65, #45, #147 ) ;
#5 = CARTESIAN_POINT ( 'NONE',  ( 4.461911644876750562E-14, -1.565027930462072208E-15, 12.77942286340605094 ) ) ;
#6 = EDGE_LOOP ( 'NONE', ( #191 ) ) ;
#7 = DIRECTION ( 'NONE',  ( 4.275831445896958607E-31, 1.000000000000000000, 1.224646799147353207E-16 ) ) ;
#8 = DIRECTION ( 'NONE',  ( -3.491481338843133355E-15, 1.224646799147353207E-16, -1.000000000000000000 ) ) ;
#9 = CYLINDRICAL_SURFACE ( 'NONE', #212, 1.999999999999996669 ) ;
#10 = CALENDAR_DATE ( 2021, 2, 12 ) ;
#11 = CONICAL_SURFACE ( 'NONE', #88, 1.600000000000000977, 0.7853981633974512766 ) ;
#12 = APPROVAL_ROLE ( '' ) ;
#13 = FACE_OUTER_BOUND ( 'NONE', #22, .T. ) ;
#14 = PERSON_AND_ORGANIZATION_ROLE ( 'creator' ) ;
#15 = DIRECTION ( 'NONE',  ( 0.0000000000000000000, 1.000000000000000000, 0.0000000000000000000 ) ) ;
#16 = AXIS2_PLACEMENT_3D ( 'NONE', #227, #178, #102 ) ;
#17 = LOCAL_TIME ( 13, 56, 52.00000000000000000, #185 ) ;
#18 = CARTESIAN_POINT ( 'NONE',  ( 0.0000000000000000000, 0.0000000000000000000, 0.0000000000000000000 ) ) ;
#19 = APPROVAL_STATUS ( 'not_yet_approved' ) ;
#20 = PRODUCT_RELATED_PRODUCT_CATEGORY ( 'detail', '', ( #95 ) ) ;
#21 = FACE_OUTER_BOUND ( 'NONE', #179, .T. ) ;
#22 = EDGE_LOOP ( 'NONE', ( #209 ) ) ;
#23 = CARTESIAN_POINT ( 'NONE',  ( 4.189777606611760026E-14, -1.469576158976823947E-15, 12.00000000000000000 ) ) ;
#24 = CARTESIAN_POINT ( 'NONE',  ( -4.382727232044432975E-31, 1.537253777228421838E-32, -1.255262969126051391E-16 ) ) ;
#25 = DIRECTION ( 'NONE',  ( 0.0000000000000000000, 1.000000000000000000, 0.0000000000000000000 ) ) ;
#26 = AXIS2_PLACEMENT_3D ( 'NONE', #24, #61, #7 ) ;
#27 = CC_DESIGN_PERSON_AND_ORGANIZATION_ASSIGNMENT ( #110, #69, ( #72 ) ) ;
#28 = FACE_OUTER_BOUND ( 'NONE', #3, .T. ) ;
#29 = ORIENTED_EDGE ( 'NONE', *, *, #108, .F. ) ;
#30 = VERTEX_POINT ( 'NONE', #35 ) ;
#31 = DATE_AND_TIME ( #10, #240 ) ;
#32 = CARTESIAN_POINT ( 'NONE',  ( 2.779219145719134403E-13, 1.999999999999991340, 79.60000000000000853 ) ) ;
#33 = PERSON_AND_ORGANIZATION ( #202, #129 ) ;
#34 = DIRECTION ( 'NONE',  ( -3.491481338843133355E-15, 1.224646799147353207E-16, -1.000000000000000000 ) ) ;
#35 = CARTESIAN_POINT ( 'NONE',  ( 1.396592535537251567E-15, 2.450000000000025047, 0.3999999999999995226 ) ) ;
#36 = DATE_AND_TIME ( #203, #225 ) ;
#37 = AXIS2_PLACEMENT_3D ( 'NONE', #201, #223, #169 ) ;
#38 = EDGE_CURVE ( 'NONE', #89, #89, #128, .T. ) ;
#39 = ORIENTED_EDGE ( 'NONE', *, *, #208, .T. ) ;
#40 = FACE_OUTER_BOUND ( 'NONE', #116, .T. ) ;
#41 = DIRECTION ( 'NONE',  ( 3.930469274259624799E-31, 1.000000000000000000, 1.327594496921012158E-16 ) ) ;
#42 = CONICAL_SURFACE ( 'NONE', #100, 2.050000000000023803, 0.7853981633974508325 ) ;
#43 = PLANE ( 'NONE',  #26 ) ;
#44 = DIRECTION ( 'NONE',  ( 4.275831445896958607E-31, 1.000000000000000000, 1.224646799147353207E-16 ) ) ;
#45 = DIRECTION ( 'NONE',  ( 3.491481338843133355E-15, -1.224646799147353207E-16, 1.000000000000000000 ) ) ;
#46 = APPROVAL_DATE_TIME ( #168, #56 ) ;
#47 = FACE_OUTER_BOUND ( 'NONE', #6, .T. ) ;
#48 = FACE_BOUND ( 'NONE', #176, .T. ) ;
#49 = CALENDAR_DATE ( 2021, 2, 12 ) ;
#50 = APPROVAL ( #90, 'UNSPECIFIED' ) ;
#51 = EDGE_LOOP ( 'NONE', ( #172 ) ) ;
#52 = CIRCLE ( 'NONE', #233, 2.050000000000023803 ) ;
#53 = EDGE_CURVE ( 'NONE', #30, #30, #192, .T. ) ;
#54 = APPROVAL_ROLE ( '' ) ;
#55 = DIRECTION ( 'NONE',  ( -4.275831445896957731E-31, -1.000000000000000000, -1.224646799147352961E-16 ) ) ;
#56 = APPROVAL ( #19, 'UNSPECIFIED' ) ;
#57 = FACE_OUTER_BOUND ( 'NONE', #160, .T. ) ;
#58 = CARTESIAN_POINT ( 'NONE',  ( 0.0000000000000000000, 0.0000000000000000000, 0.0000000000000000000 ) ) ;
#59 = DIRECTION ( 'NONE',  ( 4.275831445896957731E-31, 1.000000000000000000, 1.224646799147352961E-16 ) ) ;
#60 = AXIS2_PLACEMENT_3D ( 'NONE', #114, #142, #41 ) ;
#61 = DIRECTION ( 'NONE',  ( -3.491481338843133355E-15, 1.224646799147353207E-16, -1.000000000000000000 ) ) ;
#62 = PERSON_AND_ORGANIZATION_ROLE ( 'design_owner' ) ;
#63 =( LENGTH_UNIT ( ) NAMED_UNIT ( * ) SI_UNIT ( .MILLI., .METRE. ) );
#64 = APPROVAL_DATE_TIME ( #36, #50 ) ;
#65 = CARTESIAN_POINT ( 'NONE',  ( 4.189777606611760026E-14, 1.837205733760792812E-32, 12.00000000000000000 ) ) ;
#66 =( GEOMETRIC_REPRESENTATION_CONTEXT ( 3 ) GLOBAL_UNCERTAINTY_ASSIGNED_CONTEXT ( ( #101 ) ) GLOBAL_UNIT_ASSIGNED_CONTEXT ( ( #63, #199, #165 ) ) REPRESENTATION_CONTEXT ( 'NONE', 'WORKASPACE' ) );
#67 = ADVANCED_FACE ( 'NONE', ( #57 ), #214, .F. ) ;
#68 = CARTESIAN_POINT ( 'NONE',  ( 4.189777606611760026E-14, 2.450000000000023714, 12.00000000000000000 ) ) ;
#69 = PERSON_AND_ORGANIZATION_ROLE ( 'design_supplier' ) ;
#70 = VERTEX_POINT ( 'NONE', #32 ) ;
#71 = AXIS2_PLACEMENT_3D ( 'NONE', #123, #204, #220 ) ;
#72 = PRODUCT_DEFINITION_FORMATION_WITH_SPECIFIED_SOURCE ( 'ANY', '', #95, .NOT_KNOWN. ) ;
#73 = ORIENTED_EDGE ( 'NONE', *, *, #38, .T. ) ;
#74 = FACE_BOUND ( 'NONE', #118, .T. ) ;
#75 = CC_DESIGN_PERSON_AND_ORGANIZATION_ASSIGNMENT ( #187, #62, ( #95 ) ) ;
#76 = CARTESIAN_POINT ( 'NONE',  ( -8.765454464088865949E-31, 3.074507554456843676E-32, -2.510525938252102782E-16 ) ) ;
#77 = DIRECTION ( 'NONE',  ( 3.491481338843133355E-15, -1.224646799147353207E-16, 1.000000000000000000 ) ) ;
#78 = FACE_OUTER_BOUND ( 'NONE', #198, .T. ) ;
#79 = LOCAL_TIME ( 13, 56, 52.00000000000000000, #206 ) ;
#80 = FACE_BOUND ( 'NONE', #234, .T. ) ;
#81 = PERSON_AND_ORGANIZATION ( #202, #129 ) ;
#82 = AXIS2_PLACEMENT_3D ( 'NONE', #148, #34, #15 ) ;
#83 = PLANE ( 'NONE',  #186 ) ;
#84 = ADVANCED_FACE ( 'NONE', ( #28, #74 ), #42, .T. ) ;
#85 = APPROVAL_ROLE ( '' ) ;
#86 = APPLICATION_PROTOCOL_DEFINITION ( 'international standard', 'config_control_design', 1994, #163 ) ;
#87 = PERSON_AND_ORGANIZATION ( #202, #129 ) ;
#88 = AXIS2_PLACEMENT_3D ( 'NONE', #231, #139, #120 ) ;
#89 = VERTEX_POINT ( 'NONE', #124 ) ;
#90 = APPROVAL_STATUS ( 'not_yet_approved' ) ;
#91 = VERTEX_POINT ( 'NONE', #1 ) ;
#92 = APPLICATION_PROTOCOL_DEFINITION ( 'international standard', 'config_control_design', 1994, #96 ) ;
#93 = EDGE_LOOP ( 'NONE', ( #211 ) ) ;
#94 = CLOSED_SHELL ( 'NONE', ( #193, #239, #103, #84 ) ) ;
#95 = PRODUCT ( '321716', '321716', '', ( #205 ) ) ;
#96 = APPLICATION_CONTEXT ( 'configuration controlled 3d designs of mechanical parts and assemblies' ) ;
#97 = DIRECTION ( 'NONE',  ( -3.491481338843133355E-15, 1.224646799147353207E-16, -1.000000000000000000 ) ) ;
#98 = CARTESIAN_POINT ( 'NONE',  ( 4.189777606611760026E-14, -1.469576158976823947E-15, 12.00000000000000000 ) ) ;
#99 = CARTESIAN_POINT ( 'NONE',  ( 4.189777606611760026E-14, 1.837205733760792812E-32, 12.00000000000000000 ) ) ;
#100 = AXIS2_PLACEMENT_3D ( 'NONE', #76, #104, #55 ) ;
#101 = UNCERTAINTY_MEASURE_WITH_UNIT (LENGTH_MEASURE( 1.000000000000000082E-05 ), #63, 'distance_accuracy_value', 'NONE');
#102 = DIRECTION ( 'NONE',  ( 0.0000000000000000000, 1.000000000000000000, 0.0000000000000000000 ) ) ;
#103 = ADVANCED_FACE ( 'NONE', ( #78 ), #43, .T. ) ;
#104 = DIRECTION ( 'NONE',  ( 3.491481338843133355E-15, -1.224646799147353207E-16, 1.000000000000000000 ) ) ;
#105 = CYLINDRICAL_SURFACE ( 'NONE', #71, 2.450000000000025047 ) ;
#106 = CALENDAR_DATE ( 2021, 2, 12 ) ;
#107 = EDGE_CURVE ( 'NONE', #237, #237, #140, .T. ) ;
#108 = EDGE_CURVE ( 'NONE', #126, #126, #52, .T. ) ;
#109 = DATE_TIME_ROLE ( 'classification_date' ) ;
#110 = PERSON_AND_ORGANIZATION ( #202, #129 ) ;
#111 = CC_DESIGN_APPROVAL ( #50, ( #72 ) ) ;
#112 = PERSON_AND_ORGANIZATION ( #202, #129 ) ;
#113 = CC_DESIGN_DATE_AND_TIME_ASSIGNMENT ( #127, #243, ( #2 ) ) ;
#114 = CARTESIAN_POINT ( 'NONE',  ( 1.396592535537250581E-15, -4.898587196589402598E-17, 0.3999999999999991895 ) ) ;
#115 = ORIENTED_EDGE ( 'NONE', *, *, #119, .T. ) ;
#116 = EDGE_LOOP ( 'NONE', ( #39 ) ) ;
#117 = AXIS2_PLACEMENT_3D ( 'NONE', #23, #97, #182 ) ;
#118 = EDGE_LOOP ( 'NONE', ( #29 ) ) ;
#119 = EDGE_CURVE ( 'NONE', #91, #91, #161, .T. ) ;
#120 = DIRECTION ( 'NONE',  ( 0.0000000000000000000, 1.000000000000000000, 0.0000000000000000000 ) ) ;
#121 = VERTEX_POINT ( 'NONE', #167 ) ;
#122 = COORDINATED_UNIVERSAL_TIME_OFFSET ( 1, 0, .AHEAD. ) ;
#123 = CARTESIAN_POINT ( 'NONE',  ( 0.0000000000000000000, 0.0000000000000000000, 0.0000000000000000000 ) ) ;
#124 = CARTESIAN_POINT ( 'NONE',  ( 4.461911644876750562E-14, 1.999999999999990452, 12.77942286340605094 ) ) ;
#125 = CALENDAR_DATE ( 2021, 2, 12 ) ;
#126 = VERTEX_POINT ( 'NONE', #146 ) ;
#127 = DATE_AND_TIME ( #106, #79 ) ;
#128 = CIRCLE ( 'NONE', #159, 1.999999999999992228 ) ;
#129 = ORGANIZATION ( 'UNSPECIFIED', 'UNSPECIFIED', '' ) ;
#130 = APPROVAL_PERSON_ORGANIZATION ( #235, #50, #85 ) ;
#131 = ADVANCED_FACE ( 'NONE', ( #195, #40 ), #9, .T. ) ;
#132 = ORIENTED_EDGE ( 'NONE', *, *, #53, .T. ) ;
#133 = CONICAL_SURFACE ( 'NONE', #82, 2.450000000000025047, 0.5235987755982998149 ) ;
#134 = DESIGN_CONTEXT ( 'detailed design', #96, 'design' ) ;
#135 = SECURITY_CLASSIFICATION ( '', '', #145 ) ;
#136 = ORIENTED_EDGE ( 'NONE', *, *, #107, .F. ) ;
#137 = CARTESIAN_POINT ( 'NONE',  ( -8.765454464088865949E-31, 3.074507554456843676E-32, -2.510525938252102782E-16 ) ) ;
#138 = FACE_OUTER_BOUND ( 'NONE', #51, .T. ) ;
#139 = DIRECTION ( 'NONE',  ( -3.491481338843133355E-15, 1.224646799147353207E-16, -1.000000000000000000 ) ) ;
#140 = CIRCLE ( 'NONE', #166, 2.450000000000025047 ) ;
#141 = APPROVAL_PERSON_ORGANIZATION ( #87, #56, #12 ) ;
#142 = DIRECTION ( 'NONE',  ( -3.491481338843133355E-15, 1.224646799147353207E-16, -1.000000000000000000 ) ) ;
#143 = CC_DESIGN_PERSON_AND_ORGANIZATION_ASSIGNMENT ( #33, #149, ( #135 ) ) ;
#144 = CARTESIAN_POINT ( 'NONE',  ( 2.793185071074506684E-13, 1.199807826129472128E-32, 80.00000000000000000 ) ) ;
#145 = SECURITY_CLASSIFICATION_LEVEL ( 'unclassified' ) ;
#146 = CARTESIAN_POINT ( 'NONE',  ( 0.0000000000000000000, 2.050000000000023803, 0.0000000000000000000 ) ) ;
#147 = DIRECTION ( 'NONE',  ( -4.275831445896958607E-31, -1.000000000000000000, -1.224646799147353207E-16 ) ) ;
#148 = CARTESIAN_POINT ( 'NONE',  ( 4.189777606611760026E-14, -1.469576158976823947E-15, 12.00000000000000000 ) ) ;
#149 = PERSON_AND_ORGANIZATION_ROLE ( 'classification_officer' ) ;
#150 = FACE_OUTER_BOUND ( 'NONE', #93, .T. ) ;
#151 = CC_DESIGN_PERSON_AND_ORGANIZATION_ASSIGNMENT ( #81, #14, ( #2 ) ) ;
#152 = MANIFOLD_SOLID_BREP ( 'Corps-Déplacer/Copier1[2]', #94 ) ;
#153 = CIRCLE ( 'NONE', #37, 2.000000000000000888 ) ;
#154 = DIRECTION ( 'NONE',  ( 0.0000000000000000000, 1.000000000000000000, 0.0000000000000000000 ) ) ;
#155 = ADVANCED_BREP_SHAPE_REPRESENTATION ( '321716', ( #230, #152, #207 ), #66 ) ;
#156 = EDGE_LOOP ( 'NONE', ( #197 ) ) ;
#157 = PRODUCT_DEFINITION_SHAPE ( 'NONE', 'NONE',  #2 ) ;
#158 = ORIENTED_EDGE ( 'NONE', *, *, #107, .T. ) ;
#159 = AXIS2_PLACEMENT_3D ( 'NONE', #5, #174, #25 ) ;
#160 = EDGE_LOOP ( 'NONE', ( #158 ) ) ;
#161 = CIRCLE ( 'NONE', #16, 1.600000000000000977 ) ;
#162 = DIRECTION ( 'NONE',  ( -3.491481338843133355E-15, 1.224646799147353207E-16, -1.000000000000000000 ) ) ;
#163 = APPLICATION_CONTEXT ( 'configuration controlled 3d designs of mechanical parts and assemblies' ) ;
#164 = PERSON_AND_ORGANIZATION_ROLE ( 'creator' ) ;
#165 =( NAMED_UNIT ( * ) SI_UNIT ( $, .STERADIAN. ) SOLID_ANGLE_UNIT ( ) );
#166 = AXIS2_PLACEMENT_3D ( 'NONE', #98, #229, #154 ) ;
#167 = CARTESIAN_POINT ( 'NONE',  ( 4.189777606611760026E-14, 2.450000000000023714, 12.00000000000000000 ) ) ;
#168 = DATE_AND_TIME ( #125, #189 ) ;
#169 = DIRECTION ( 'NONE',  ( 0.0000000000000000000, 1.000000000000000000, 0.0000000000000000000 ) ) ;
#170 = APPROVAL ( #190, 'UNSPECIFIED' ) ;
#171 = CC_DESIGN_SECURITY_CLASSIFICATION ( #135, ( #72 ) ) ;
#172 = ORIENTED_EDGE ( 'NONE', *, *, #208, .F. ) ;
#173 = ADVANCED_FACE ( 'NONE', ( #138, #80 ), #11, .T. ) ;
#174 = DIRECTION ( 'NONE',  ( -3.491481338843133355E-15, 1.224646799147353207E-16, -1.000000000000000000 ) ) ;
#175 = EDGE_CURVE ( 'NONE', #121, #121, #226, .T. ) ;
#176 = EDGE_LOOP ( 'NONE', ( #73 ) ) ;
#177 = DIRECTION ( 'NONE',  ( -4.275831445896958607E-31, -1.000000000000000000, -1.224646799147353207E-16 ) ) ;
#178 = DIRECTION ( 'NONE',  ( -3.491481338843133355E-15, 1.224646799147353207E-16, -1.000000000000000000 ) ) ;
#179 = EDGE_LOOP ( 'NONE', ( #136 ) ) ;
#180 = FACE_OUTER_BOUND ( 'NONE', #228, .T. ) ;
#181 = COORDINATED_UNIVERSAL_TIME_OFFSET ( 1, 0, .AHEAD. ) ;
#182 = DIRECTION ( 'NONE',  ( 0.0000000000000000000, 1.000000000000000000, 0.0000000000000000000 ) ) ;
#183 = COORDINATED_UNIVERSAL_TIME_OFFSET ( 1, 0, .AHEAD. ) ;
#184 = DIRECTION ( 'NONE',  ( 4.275831445896958607E-31, 1.000000000000000000, 1.224646799147353207E-16 ) ) ;
#185 = COORDINATED_UNIVERSAL_TIME_OFFSET ( 1, 0, .AHEAD. ) ;
#186 = AXIS2_PLACEMENT_3D ( 'NONE', #144, #162, #184 ) ;
#187 = PERSON_AND_ORGANIZATION ( #202, #129 ) ;
#188 = CC_DESIGN_DATE_AND_TIME_ASSIGNMENT ( #200, #109, ( #135 ) ) ;
#189 = LOCAL_TIME ( 13, 56, 52.00000000000000000, #183 ) ;
#190 = APPROVAL_STATUS ( 'not_yet_approved' ) ;
#191 = ORIENTED_EDGE ( 'NONE', *, *, #53, .F. ) ;
#192 = CIRCLE ( 'NONE', #60, 2.450000000000025047 ) ;
#193 = ADVANCED_FACE ( 'NONE', ( #150, #47 ), #105, .T. ) ;
#194 = ORIENTED_EDGE ( 'NONE', *, *, #108, .T. ) ;
#195 = FACE_OUTER_BOUND ( 'NONE', #156, .T. ) ;
#196 = AXIS2_PLACEMENT_3D ( 'NONE', #99, #77, #177 ) ;
#197 = ORIENTED_EDGE ( 'NONE', *, *, #38, .F. ) ;
#198 = EDGE_LOOP ( 'NONE', ( #194 ) ) ;
#199 =( NAMED_UNIT ( * ) PLANE_ANGLE_UNIT ( ) SI_UNIT ( $, .RADIAN. ) );
#200 = DATE_AND_TIME ( #49, #17 ) ;
#201 = CARTESIAN_POINT ( 'NONE',  ( 2.779219145719134403E-13, -9.748188521212932624E-15, 79.60000000000000853 ) ) ;
#202 = PERSON ( 'UNSPECIFIED', 'UNSPECIFIED', 'UNSPECIFIED', ('UNSPECIFIED'), ('UNSPECIFIED'), ('UNSPECIFIED') ) ;
#203 = CALENDAR_DATE ( 2021, 2, 12 ) ;
#204 = DIRECTION ( 'NONE',  ( -3.491481338843133355E-15, 1.224646799147353207E-16, -1.000000000000000000 ) ) ;
#205 = MECHANICAL_CONTEXT ( 'NONE', #163, 'mechanical' ) ;
#206 = COORDINATED_UNIVERSAL_TIME_OFFSET ( 1, 0, .AHEAD. ) ;
#207 = AXIS2_PLACEMENT_3D ( 'NONE', #18, #242, #221 ) ;
#208 = EDGE_CURVE ( 'NONE', #70, #70, #153, .T. ) ;
#209 = ORIENTED_EDGE ( 'NONE', *, *, #175, .F. ) ;
#210 = DIRECTION ( 'NONE',  ( -3.491481338843133355E-15, 1.224646799147353207E-16, -1.000000000000000000 ) ) ;
#211 = ORIENTED_EDGE ( 'NONE', *, *, #175, .T. ) ;
#212 = AXIS2_PLACEMENT_3D ( 'NONE', #58, #8, #44 ) ;
#213 = CC_DESIGN_APPROVAL ( #56, ( #135 ) ) ;
#214 = PLANE ( 'NONE',  #196 ) ;
#215 = ORIENTED_EDGE ( 'NONE', *, *, #119, .F. ) ;
#216 = ADVANCED_FACE ( 'NONE', ( #48, #21 ), #133, .T. ) ;
#217 = PLANE ( 'NONE',  #4 ) ;
#218 = CC_DESIGN_APPROVAL ( #170, ( #2 ) ) ;
#219 = CC_DESIGN_PERSON_AND_ORGANIZATION_ASSIGNMENT ( #238, #164, ( #72 ) ) ;
#220 = DIRECTION ( 'NONE',  ( 4.275831445896958607E-31, 1.000000000000000000, 1.224646799147353207E-16 ) ) ;
#221 = DIRECTION ( 'NONE',  ( 1.000000000000000000, 0.0000000000000000000, 0.0000000000000000000 ) ) ;
#222 = SHAPE_DEFINITION_REPRESENTATION ( #157, #155 ) ;
#223 = DIRECTION ( 'NONE',  ( -3.491481338843133355E-15, 1.224646799147353207E-16, -1.000000000000000000 ) ) ;
#224 = APPROVAL_PERSON_ORGANIZATION ( #112, #170, #54 ) ;
#225 = LOCAL_TIME ( 13, 56, 52.00000000000000000, #181 ) ;
#226 = CIRCLE ( 'NONE', #117, 2.450000000000025047 ) ;
#227 = CARTESIAN_POINT ( 'NONE',  ( 2.793185071074506684E-13, -9.797174393178826052E-15, 80.00000000000000000 ) ) ;
#228 = EDGE_LOOP ( 'NONE', ( #215 ) ) ;
#229 = DIRECTION ( 'NONE',  ( -3.491481338843133355E-15, 1.224646799147353207E-16, -1.000000000000000000 ) ) ;
#230 = MANIFOLD_SOLID_BREP ( 'Corps-Déplacer/Copier1[1]', #232 ) ;
#231 = CARTESIAN_POINT ( 'NONE',  ( 2.793185071074506684E-13, -9.797174393178826052E-15, 80.00000000000000000 ) ) ;
#232 = CLOSED_SHELL ( 'NONE', ( #67, #216, #131, #173, #236 ) ) ;
#233 = AXIS2_PLACEMENT_3D ( 'NONE', #137, #210, #59 ) ;
#234 = EDGE_LOOP ( 'NONE', ( #115 ) ) ;
#235 = PERSON_AND_ORGANIZATION ( #202, #129 ) ;
#236 = ADVANCED_FACE ( 'NONE', ( #180 ), #83, .F. ) ;
#237 = VERTEX_POINT ( 'NONE', #68 ) ;
#238 = PERSON_AND_ORGANIZATION ( #202, #129 ) ;
#239 = ADVANCED_FACE ( 'NONE', ( #13 ), #217, .T. ) ;
#240 = LOCAL_TIME ( 13, 56, 52.00000000000000000, #122 ) ;
#241 = APPROVAL_DATE_TIME ( #31, #170 ) ;
#242 = DIRECTION ( 'NONE',  ( 0.0000000000000000000, 0.0000000000000000000, 1.000000000000000000 ) ) ;
#243 = DATE_TIME_ROLE ( 'creation_date' ) ;
ENDSEC;
END-ISO-10303-21;
