ISO-10303-21;
HEADER;
FILE_DESCRIPTION (( 'STEP AP203' ),
    '1' );
FILE_NAME ('321715.step',
    '2021-12-02T12:56:51',
    ( '' ),
    ( '' ),
    'SwSTEP 2.0',
    'SolidWorks 2019',
    '' );
FILE_SCHEMA (( 'CONFIG_CONTROL_DESIGN' ));
ENDSEC;

DATA;
#1 = DIRECTION ( 'NONE',  ( 3.938507043736637926E-31, 1.000000000000000000, 1.330309414092629727E-16 ) ) ;
#2 =( NAMED_UNIT ( * ) SI_UNIT ( $, .STERADIAN. ) SOLID_ANGLE_UNIT ( ) );
#3 = CIRCLE ( 'NONE', #169, 2.445000000000025153 ) ;
#4 = DIRECTION ( 'NONE',  ( -3.491481338843133355E-15, 1.224646799147353207E-16, -1.000000000000000000 ) ) ;
#5 = APPLICATION_CONTEXT ( 'configuration controlled 3d designs of mechanical parts and assemblies' ) ;
#6 = ADVANCED_FACE ( 'NONE', ( #41, #66 ), #243, .T. ) ;
#7 = CALENDAR_DATE ( 2021, 2, 12 ) ;
#8 = CARTESIAN_POINT ( 'NONE',  ( 4.189777606611760026E-14, -1.469576158976823947E-15, 12.00000000000000000 ) ) ;
#9 = SHAPE_DEFINITION_REPRESENTATION ( #160, #142 ) ;
#10 = DIRECTION ( 'NONE',  ( -3.491481338843133355E-15, 1.224646799147353207E-16, -1.000000000000000000 ) ) ;
#11 = DIRECTION ( 'NONE',  ( 1.000000000000000000, 0.0000000000000000000, 0.0000000000000000000 ) ) ;
#12 = FACE_OUTER_BOUND ( 'NONE', #236, .T. ) ;
#13 = EDGE_CURVE ( 'NONE', #203, #203, #3, .T. ) ;
#14 = EDGE_LOOP ( 'NONE', ( #121 ) ) ;
#15 = PERSON_AND_ORGANIZATION ( #23, #19 ) ;
#16 = DIRECTION ( 'NONE',  ( -3.491481338843133355E-15, 1.224646799147353207E-16, -1.000000000000000000 ) ) ;
#17 = CIRCLE ( 'NONE', #91, 2.000000000000000888 ) ;
#18 = ADVANCED_FACE ( 'NONE', ( #211 ), #43, .F. ) ;
#19 = ORGANIZATION ( 'UNSPECIFIED', 'UNSPECIFIED', '' ) ;
#20 = VERTEX_POINT ( 'NONE', #73 ) ;
#21 = PRODUCT_DEFINITION_FORMATION_WITH_SPECIFIED_SOURCE ( 'ANY', '', #71, .NOT_KNOWN. ) ;
#22 = CARTESIAN_POINT ( 'NONE',  ( 0.0000000000000000000, 0.0000000000000000000, 0.0000000000000000000 ) ) ;
#23 = PERSON ( 'UNSPECIFIED', 'UNSPECIFIED', 'UNSPECIFIED', ('UNSPECIFIED'), ('UNSPECIFIED'), ('UNSPECIFIED') ) ;
#24 = CARTESIAN_POINT ( 'NONE',  ( 1.396592535537252159E-15, -4.898587196589408145E-17, 0.3999999999999996336 ) ) ;
#25 = DIRECTION ( 'NONE',  ( -3.491481338843133355E-15, 1.224646799147353207E-16, -1.000000000000000000 ) ) ;
#26 = PERSON_AND_ORGANIZATION_ROLE ( 'creator' ) ;
#27 = ORIENTED_EDGE ( 'NONE', *, *, #224, .F. ) ;
#28 = DIRECTION ( 'NONE',  ( -4.275831445896959482E-31, -1.000000000000000000, -1.224646799147353207E-16 ) ) ;
#29 = PERSON_AND_ORGANIZATION ( #23, #19 ) ;
#30 = DIRECTION ( 'NONE',  ( 0.0000000000000000000, 1.000000000000000000, 0.0000000000000000000 ) ) ;
#31 = DIRECTION ( 'NONE',  ( -3.491481338843133355E-15, 1.224646799147353207E-16, -1.000000000000000000 ) ) ;
#32 = ORIENTED_EDGE ( 'NONE', *, *, #13, .T. ) ;
#33 = DIRECTION ( 'NONE',  ( -4.275831445896958607E-31, -1.000000000000000000, -1.224646799147353207E-16 ) ) ;
#34 = CARTESIAN_POINT ( 'NONE',  ( 4.189777606611760026E-14, 2.445000000000023821, 12.00000000000000000 ) ) ;
#35 = VERTEX_POINT ( 'NONE', #74 ) ;
#36 = LOCAL_TIME ( 13, 56, 51.00000000000000000, #167 ) ;
#37 = ADVANCED_FACE ( 'NONE', ( #171, #12 ), #157, .T. ) ;
#38 = FACE_OUTER_BOUND ( 'NONE', #83, .T. ) ;
#39 = DIRECTION ( 'NONE',  ( -3.491481338843133355E-15, 1.224646799147353207E-16, -1.000000000000000000 ) ) ;
#40 = CALENDAR_DATE ( 2021, 2, 12 ) ;
#41 = FACE_OUTER_BOUND ( 'NONE', #131, .T. ) ;
#42 = PERSON_AND_ORGANIZATION_ROLE ( 'creator' ) ;
#43 = PLANE ( 'NONE',  #51 ) ;
#44 = APPROVAL ( #132, 'UNSPECIFIED' ) ;
#45 = APPROVAL_ROLE ( '' ) ;
#46 = DIRECTION ( 'NONE',  ( 4.275831445896958607E-31, 1.000000000000000000, 1.224646799147353207E-16 ) ) ;
#47 = EDGE_LOOP ( 'NONE', ( #191 ) ) ;
#48 = ORIENTED_EDGE ( 'NONE', *, *, #220, .F. ) ;
#49 = EDGE_CURVE ( 'NONE', #92, #92, #54, .T. ) ;
#50 = ORIENTED_EDGE ( 'NONE', *, *, #49, .F. ) ;
#51 = AXIS2_PLACEMENT_3D ( 'NONE', #99, #102, #173 ) ;
#52 = CARTESIAN_POINT ( 'NONE',  ( 4.189777606611760026E-14, 1.833456334304137867E-32, 12.00000000000000000 ) ) ;
#53 = PRODUCT_RELATED_PRODUCT_CATEGORY ( 'detail', '', ( #71 ) ) ;
#54 = CIRCLE ( 'NONE', #182, 1.999999999999992228 ) ;
#55 = APPROVAL ( #154, 'UNSPECIFIED' ) ;
#56 = DIRECTION ( 'NONE',  ( 0.0000000000000000000, 1.000000000000000000, 0.0000000000000000000 ) ) ;
#57 = UNCERTAINTY_MEASURE_WITH_UNIT (LENGTH_MEASURE( 1.000000000000000082E-05 ), #87, 'distance_accuracy_value', 'NONE');
#58 = APPROVAL ( #112, 'UNSPECIFIED' ) ;
#59 = CIRCLE ( 'NONE', #98, 1.600000000000000977 ) ;
#60 = DIRECTION ( 'NONE',  ( 0.0000000000000000000, 1.000000000000000000, 0.0000000000000000000 ) ) ;
#61 = PERSON_AND_ORGANIZATION ( #23, #19 ) ;
#62 = DIRECTION ( 'NONE',  ( -3.491481338843133355E-15, 1.224646799147353207E-16, -1.000000000000000000 ) ) ;
#63 = APPROVAL_DATE_TIME ( #128, #58 ) ;
#64 = DIRECTION ( 'NONE',  ( -3.491481338843133355E-15, 1.224646799147353207E-16, -1.000000000000000000 ) ) ;
#65 = PERSON_AND_ORGANIZATION ( #23, #19 ) ;
#66 = FACE_BOUND ( 'NONE', #47, .T. ) ;
#67 = ADVANCED_FACE ( 'NONE', ( #188 ), #214, .T. ) ;
#68 = CC_DESIGN_DATE_AND_TIME_ASSIGNMENT ( #170, #233, ( #195 ) ) ;
#69 = FACE_OUTER_BOUND ( 'NONE', #226, .T. ) ;
#70 = EDGE_CURVE ( 'NONE', #183, #183, #77, .T. ) ;
#71 = PRODUCT ( '321715', '321715', '', ( #101 ) ) ;
#72 = LOCAL_TIME ( 13, 56, 51.00000000000000000, #115 ) ;
#73 = CARTESIAN_POINT ( 'NONE',  ( 2.779219145719134403E-13, 1.999999999999991340, 79.60000000000000853 ) ) ;
#74 = CARTESIAN_POINT ( 'NONE',  ( 4.189777606611760026E-14, 2.445000000000023821, 12.00000000000000000 ) ) ;
#75 = DATE_AND_TIME ( #187, #206 ) ;
#76 = EDGE_LOOP ( 'NONE', ( #209 ) ) ;
#77 = CIRCLE ( 'NONE', #164, 2.045000000000023910 ) ;
#78 = CARTESIAN_POINT ( 'NONE',  ( 4.189777606611760026E-14, 1.833456334304137867E-32, 12.00000000000000000 ) ) ;
#79 = DIRECTION ( 'NONE',  ( 3.491481338843133355E-15, -1.224646799147353207E-16, 1.000000000000000000 ) ) ;
#80 = DATE_TIME_ROLE ( 'creation_date' ) ;
#81 = CARTESIAN_POINT ( 'NONE',  ( 4.189777606611760026E-14, -1.469576158976823947E-15, 12.00000000000000000 ) ) ;
#82 = ORIENTED_EDGE ( 'NONE', *, *, #49, .T. ) ;
#83 = EDGE_LOOP ( 'NONE', ( #156 ) ) ;
#84 = LOCAL_TIME ( 13, 56, 51.00000000000000000, #208 ) ;
#85 = AXIS2_PLACEMENT_3D ( 'NONE', #95, #62, #168 ) ;
#86 = EDGE_CURVE ( 'NONE', #225, #225, #59, .T. ) ;
#87 =( LENGTH_UNIT ( ) NAMED_UNIT ( * ) SI_UNIT ( .MILLI., .METRE. ) );
#88 = DIRECTION ( 'NONE',  ( -3.491481338843133355E-15, 1.224646799147353207E-16, -1.000000000000000000 ) ) ;
#89 = PLANE ( 'NONE',  #241 ) ;
#90 = DIRECTION ( 'NONE',  ( 0.0000000000000000000, 1.000000000000000000, 0.0000000000000000000 ) ) ;
#91 = AXIS2_PLACEMENT_3D ( 'NONE', #103, #16, #56 ) ;
#92 = VERTEX_POINT ( 'NONE', #181 ) ;
#93 = DIRECTION ( 'NONE',  ( 0.0000000000000000000, 1.000000000000000000, 0.0000000000000000000 ) ) ;
#94 = SECURITY_CLASSIFICATION_LEVEL ( 'unclassified' ) ;
#95 = CARTESIAN_POINT ( 'NONE',  ( 2.793185071074506684E-13, -9.797174393178826052E-15, 80.00000000000000000 ) ) ;
#96 = PERSON_AND_ORGANIZATION_ROLE ( 'design_supplier' ) ;
#97 = CC_DESIGN_SECURITY_CLASSIFICATION ( #195, ( #21 ) ) ;
#98 = AXIS2_PLACEMENT_3D ( 'NONE', #146, #4, #60 ) ;
#99 = CARTESIAN_POINT ( 'NONE',  ( 2.793185071074506684E-13, 1.199807826129472128E-32, 80.00000000000000000 ) ) ;
#100 = ADVANCED_FACE ( 'NONE', ( #127 ), #184, .T. ) ;
#101 = MECHANICAL_CONTEXT ( 'NONE', #240, 'mechanical' ) ;
#102 = DIRECTION ( 'NONE',  ( -3.491481338843133355E-15, 1.224646799147353207E-16, -1.000000000000000000 ) ) ;
#103 = CARTESIAN_POINT ( 'NONE',  ( 2.779219145719134403E-13, -9.748188521212932624E-15, 79.60000000000000853 ) ) ;
#104 = CLOSED_SHELL ( 'NONE', ( #178, #37, #144, #148, #18 ) ) ;
#105 = EDGE_LOOP ( 'NONE', ( #50 ) ) ;
#106 = CC_DESIGN_PERSON_AND_ORGANIZATION_ASSIGNMENT ( #29, #26, ( #21 ) ) ;
#107 = EDGE_CURVE ( 'NONE', #20, #20, #17, .T. ) ;
#108 = DIRECTION ( 'NONE',  ( 0.0000000000000000000, 0.0000000000000000000, 1.000000000000000000 ) ) ;
#109 = CARTESIAN_POINT ( 'NONE',  ( 2.793185071074506684E-13, 1.599999999999991207, 80.00000000000000000 ) ) ;
#110 = CIRCLE ( 'NONE', #200, 2.445000000000025153 ) ;
#111 = FACE_BOUND ( 'NONE', #216, .T. ) ;
#112 = APPROVAL_STATUS ( 'not_yet_approved' ) ;
#113 = DIRECTION ( 'NONE',  ( -4.275831445896958607E-31, -1.000000000000000000, -1.224646799147353207E-16 ) ) ;
#114 = EDGE_LOOP ( 'NONE', ( #193 ) ) ;
#115 = COORDINATED_UNIVERSAL_TIME_OFFSET ( 1, 0, .AHEAD. ) ;
#116 =( GEOMETRIC_REPRESENTATION_CONTEXT ( 3 ) GLOBAL_UNCERTAINTY_ASSIGNED_CONTEXT ( ( #57 ) ) GLOBAL_UNIT_ASSIGNED_CONTEXT ( ( #87, #143, #2 ) ) REPRESENTATION_CONTEXT ( 'NONE', 'WORKASPACE' ) );
#117 = CALENDAR_DATE ( 2021, 2, 12 ) ;
#118 = ORIENTED_EDGE ( 'NONE', *, *, #86, .T. ) ;
#119 = EDGE_LOOP ( 'NONE', ( #194 ) ) ;
#120 = APPROVAL_PERSON_ORGANIZATION ( #172, #55, #213 ) ;
#121 = ORIENTED_EDGE ( 'NONE', *, *, #107, .T. ) ;
#122 = APPLICATION_PROTOCOL_DEFINITION ( 'international standard', 'config_control_design', 1994, #240 ) ;
#123 = VERTEX_POINT ( 'NONE', #219 ) ;
#124 = DIRECTION ( 'NONE',  ( -3.491481338843133355E-15, 1.224646799147353207E-16, -1.000000000000000000 ) ) ;
#125 = FACE_OUTER_BOUND ( 'NONE', #105, .T. ) ;
#126 = PERSON_AND_ORGANIZATION_ROLE ( 'classification_officer' ) ;
#127 = FACE_OUTER_BOUND ( 'NONE', #175, .T. ) ;
#128 = DATE_AND_TIME ( #130, #72 ) ;
#129 = CARTESIAN_POINT ( 'NONE',  ( -8.744075306859381235E-31, 3.067008755543534333E-32, -2.504402704256366399E-16 ) ) ;
#130 = CALENDAR_DATE ( 2021, 2, 12 ) ;
#131 = EDGE_LOOP ( 'NONE', ( #218 ) ) ;
#132 = APPROVAL_STATUS ( 'not_yet_approved' ) ;
#133 = AXIS2_PLACEMENT_3D ( 'NONE', #81, #64, #93 ) ;
#134 = DIRECTION ( 'NONE',  ( 3.491481338843133355E-15, -1.224646799147353207E-16, 1.000000000000000000 ) ) ;
#135 = EDGE_LOOP ( 'NONE', ( #32 ) ) ;
#136 = COORDINATED_UNIVERSAL_TIME_OFFSET ( 1, 0, .AHEAD. ) ;
#137 = CC_DESIGN_PERSON_AND_ORGANIZATION_ASSIGNMENT ( #231, #185, ( #71 ) ) ;
#138 = CC_DESIGN_DATE_AND_TIME_ASSIGNMENT ( #227, #80, ( #162 ) ) ;
#139 = CYLINDRICAL_SURFACE ( 'NONE', #235, 2.445000000000025153 ) ;
#140 = AXIS2_PLACEMENT_3D ( 'NONE', #158, #108, #11 ) ;
#141 = CC_DESIGN_PERSON_AND_ORGANIZATION_ASSIGNMENT ( #61, #42, ( #162 ) ) ;
#142 = ADVANCED_BREP_SHAPE_REPRESENTATION ( '321715', ( #237, #242, #140 ), #116 ) ;
#143 =( NAMED_UNIT ( * ) PLANE_ANGLE_UNIT ( ) SI_UNIT ( $, .RADIAN. ) );
#144 = ADVANCED_FACE ( 'NONE', ( #125, #207 ), #230, .T. ) ;
#145 = COORDINATED_UNIVERSAL_TIME_OFFSET ( 1, 0, .AHEAD. ) ;
#146 = CARTESIAN_POINT ( 'NONE',  ( 2.793185071074506684E-13, -9.797174393178826052E-15, 80.00000000000000000 ) ) ;
#147 = CC_DESIGN_APPROVAL ( #44, ( #195 ) ) ;
#148 = ADVANCED_FACE ( 'NONE', ( #38, #111 ), #189, .T. ) ;
#149 = AXIS2_PLACEMENT_3D ( 'NONE', #78, #79, #113 ) ;
#150 = CARTESIAN_POINT ( 'NONE',  ( -4.372037653429690618E-31, 1.533504377771767167E-32, -1.252201352128183200E-16 ) ) ;
#151 = ORIENTED_EDGE ( 'NONE', *, *, #13, .F. ) ;
#152 = PERSON_AND_ORGANIZATION ( #23, #19 ) ;
#153 = CARTESIAN_POINT ( 'NONE',  ( 4.458887933340473058E-14, -1.563967355223347559E-15, 12.77076260936820695 ) ) ;
#154 = APPROVAL_STATUS ( 'not_yet_approved' ) ;
#155 = CC_DESIGN_APPROVAL ( #55, ( #162 ) ) ;
#156 = ORIENTED_EDGE ( 'NONE', *, *, #107, .F. ) ;
#157 = CONICAL_SURFACE ( 'NONE', #133, 2.445000000000025153, 0.5235987755982995928 ) ;
#158 = CARTESIAN_POINT ( 'NONE',  ( 0.0000000000000000000, 0.0000000000000000000, 0.0000000000000000000 ) ) ;
#159 = AXIS2_PLACEMENT_3D ( 'NONE', #150, #25, #46 ) ;
#160 = PRODUCT_DEFINITION_SHAPE ( 'NONE', 'NONE',  #162 ) ;
#161 = FACE_OUTER_BOUND ( 'NONE', #135, .T. ) ;
#162 = PRODUCT_DEFINITION ( 'UNKNOWN', '', #21, #239 ) ;
#163 = DIRECTION ( 'NONE',  ( -3.491481338843133355E-15, 1.224646799147353207E-16, -1.000000000000000000 ) ) ;
#164 = AXIS2_PLACEMENT_3D ( 'NONE', #129, #31, #165 ) ;
#165 = DIRECTION ( 'NONE',  ( 4.275831445896958607E-31, 1.000000000000000000, 1.224646799147353207E-16 ) ) ;
#166 = CC_DESIGN_PERSON_AND_ORGANIZATION_ASSIGNMENT ( #152, #126, ( #195 ) ) ;
#167 = COORDINATED_UNIVERSAL_TIME_OFFSET ( 1, 0, .AHEAD. ) ;
#168 = DIRECTION ( 'NONE',  ( 0.0000000000000000000, 1.000000000000000000, 0.0000000000000000000 ) ) ;
#169 = AXIS2_PLACEMENT_3D ( 'NONE', #8, #232, #30 ) ;
#170 = DATE_AND_TIME ( #40, #84 ) ;
#171 = FACE_BOUND ( 'NONE', #215, .T. ) ;
#172 = PERSON_AND_ORGANIZATION ( #23, #19 ) ;
#173 = DIRECTION ( 'NONE',  ( 4.275831445896958607E-31, 1.000000000000000000, 1.224646799147353207E-16 ) ) ;
#174 = APPLICATION_PROTOCOL_DEFINITION ( 'international standard', 'config_control_design', 1994, #5 ) ;
#175 = EDGE_LOOP ( 'NONE', ( #151 ) ) ;
#176 = LOCAL_TIME ( 13, 56, 51.00000000000000000, #136 ) ;
#177 = CLOSED_SHELL ( 'NONE', ( #202, #100, #67, #6 ) ) ;
#178 = ADVANCED_FACE ( 'NONE', ( #201 ), #89, .F. ) ;
#179 = APPROVAL_PERSON_ORGANIZATION ( #15, #58, #238 ) ;
#180 = DIRECTION ( 'NONE',  ( 3.491481338843133355E-15, -1.224646799147353207E-16, 1.000000000000000000 ) ) ;
#181 = CARTESIAN_POINT ( 'NONE',  ( 4.458887933340473058E-14, 1.999999999999990452, 12.77076260936820695 ) ) ;
#182 = AXIS2_PLACEMENT_3D ( 'NONE', #153, #10, #234 ) ;
#183 = VERTEX_POINT ( 'NONE', #204 ) ;
#184 = PLANE ( 'NONE',  #149 ) ;
#185 = PERSON_AND_ORGANIZATION_ROLE ( 'design_owner' ) ;
#186 = DIRECTION ( 'NONE',  ( 4.275831445896958607E-31, 1.000000000000000000, 1.224646799147353207E-16 ) ) ;
#187 = CALENDAR_DATE ( 2021, 2, 12 ) ;
#188 = FACE_OUTER_BOUND ( 'NONE', #114, .T. ) ;
#189 = CONICAL_SURFACE ( 'NONE', #85, 1.600000000000000977, 0.7853981633974512766 ) ;
#190 = PERSON_AND_ORGANIZATION ( #23, #19 ) ;
#191 = ORIENTED_EDGE ( 'NONE', *, *, #70, .F. ) ;
#192 = APPROVAL_DATE_TIME ( #229, #44 ) ;
#193 = ORIENTED_EDGE ( 'NONE', *, *, #70, .T. ) ;
#194 = ORIENTED_EDGE ( 'NONE', *, *, #224, .T. ) ;
#195 = SECURITY_CLASSIFICATION ( '', '', #94 ) ;
#196 = APPROVAL_PERSON_ORGANIZATION ( #65, #44, #45 ) ;
#197 = CIRCLE ( 'NONE', #212, 2.445000000000025153 ) ;
#198 = CC_DESIGN_APPROVAL ( #58, ( #21 ) ) ;
#199 = CC_DESIGN_PERSON_AND_ORGANIZATION_ASSIGNMENT ( #190, #96, ( #21 ) ) ;
#200 = AXIS2_PLACEMENT_3D ( 'NONE', #221, #163, #90 ) ;
#201 = FACE_OUTER_BOUND ( 'NONE', #119, .T. ) ;
#202 = ADVANCED_FACE ( 'NONE', ( #161, #69 ), #139, .T. ) ;
#203 = VERTEX_POINT ( 'NONE', #34 ) ;
#204 = CARTESIAN_POINT ( 'NONE',  ( 1.710569414459005214E-46, 2.045000000000023910, 0.0000000000000000000 ) ) ;
#205 = CARTESIAN_POINT ( 'NONE',  ( 0.0000000000000000000, 0.0000000000000000000, 0.0000000000000000000 ) ) ;
#206 = LOCAL_TIME ( 13, 56, 51.00000000000000000, #145 ) ;
#207 = FACE_OUTER_BOUND ( 'NONE', #14, .T. ) ;
#208 = COORDINATED_UNIVERSAL_TIME_OFFSET ( 1, 0, .AHEAD. ) ;
#209 = ORIENTED_EDGE ( 'NONE', *, *, #86, .F. ) ;
#210 = APPROVAL_DATE_TIME ( #75, #55 ) ;
#211 = FACE_OUTER_BOUND ( 'NONE', #76, .T. ) ;
#212 = AXIS2_PLACEMENT_3D ( 'NONE', #24, #124, #1 ) ;
#213 = APPROVAL_ROLE ( '' ) ;
#214 = PLANE ( 'NONE',  #159 ) ;
#215 = EDGE_LOOP ( 'NONE', ( #82 ) ) ;
#216 = EDGE_LOOP ( 'NONE', ( #118 ) ) ;
#217 = AXIS2_PLACEMENT_3D ( 'NONE', #228, #134, #28 ) ;
#218 = ORIENTED_EDGE ( 'NONE', *, *, #220, .T. ) ;
#219 = CARTESIAN_POINT ( 'NONE',  ( 1.396592535537253145E-15, 2.445000000000025153, 0.3999999999999999667 ) ) ;
#220 = EDGE_CURVE ( 'NONE', #123, #123, #197, .T. ) ;
#221 = CARTESIAN_POINT ( 'NONE',  ( 4.189777606611760026E-14, -1.469576158976823947E-15, 12.00000000000000000 ) ) ;
#222 = DIRECTION ( 'NONE',  ( 4.275831445896958607E-31, 1.000000000000000000, 1.224646799147353207E-16 ) ) ;
#223 = AXIS2_PLACEMENT_3D ( 'NONE', #205, #39, #186 ) ;
#224 = EDGE_CURVE ( 'NONE', #35, #35, #110, .T. ) ;
#225 = VERTEX_POINT ( 'NONE', #109 ) ;
#226 = EDGE_LOOP ( 'NONE', ( #48 ) ) ;
#227 = DATE_AND_TIME ( #7, #36 ) ;
#228 = CARTESIAN_POINT ( 'NONE',  ( -8.744075306859381235E-31, 3.067008755543534333E-32, -2.504402704256366399E-16 ) ) ;
#229 = DATE_AND_TIME ( #117, #176 ) ;
#230 = CYLINDRICAL_SURFACE ( 'NONE', #223, 1.999999999999996669 ) ;
#231 = PERSON_AND_ORGANIZATION ( #23, #19 ) ;
#232 = DIRECTION ( 'NONE',  ( -3.491481338843133355E-15, 1.224646799147353207E-16, -1.000000000000000000 ) ) ;
#233 = DATE_TIME_ROLE ( 'classification_date' ) ;
#234 = DIRECTION ( 'NONE',  ( 0.0000000000000000000, 1.000000000000000000, 0.0000000000000000000 ) ) ;
#235 = AXIS2_PLACEMENT_3D ( 'NONE', #22, #88, #222 ) ;
#236 = EDGE_LOOP ( 'NONE', ( #27 ) ) ;
#237 = MANIFOLD_SOLID_BREP ( 'Corps-Déplacer/Copier1[1]', #104 ) ;
#238 = APPROVAL_ROLE ( '' ) ;
#239 = DESIGN_CONTEXT ( 'detailed design', #5, 'design' ) ;
#240 = APPLICATION_CONTEXT ( 'configuration controlled 3d designs of mechanical parts and assemblies' ) ;
#241 = AXIS2_PLACEMENT_3D ( 'NONE', #52, #180, #33 ) ;
#242 = MANIFOLD_SOLID_BREP ( 'Corps-Déplacer/Copier1[2]', #177 ) ;
#243 = CONICAL_SURFACE ( 'NONE', #217, 2.045000000000023910, 0.7853981633974502774 ) ;
ENDSEC;
END-ISO-10303-21;
