ISO-10303-21;
HEADER;
FILE_DESCRIPTION (( 'STEP AP203' ),
    '1' );
FILE_NAME ('321714.step',
    '2021-12-02T12:56:50',
    ( '' ),
    ( '' ),
    'SwSTEP 2.0',
    'SolidWorks 2019',
    '' );
FILE_SCHEMA (( 'CONFIG_CONTROL_DESIGN' ));
ENDSEC;

DATA;
#1 = EDGE_LOOP ( 'NONE', ( #155 ) ) ;
#2 = CYLINDRICAL_SURFACE ( 'NONE', #84, 1.999999999999996669 ) ;
#3 = ORIENTED_EDGE ( 'NONE', *, *, #125, .F. ) ;
#4 = DIRECTION ( 'NONE',  ( 3.491481338843133355E-15, -1.224646799147353207E-16, 1.000000000000000000 ) ) ;
#5 = DIRECTION ( 'NONE',  ( -4.275831445896958607E-31, -1.000000000000000000, -1.224646799147353207E-16 ) ) ;
#6 = CC_DESIGN_APPROVAL ( #78, ( #207 ) ) ;
#7 = CC_DESIGN_SECURITY_CLASSIFICATION ( #100, ( #167 ) ) ;
#8 = DIRECTION ( 'NONE',  ( 3.491481338843133355E-15, -1.224646799147353207E-16, 1.000000000000000000 ) ) ;
#9 = FACE_OUTER_BOUND ( 'NONE', #70, .T. ) ;
#10 = PERSON_AND_ORGANIZATION_ROLE ( 'design_owner' ) ;
#11 = AXIS2_PLACEMENT_3D ( 'NONE', #12, #152, #98 ) ;
#12 = CARTESIAN_POINT ( 'NONE',  ( 0.0000000000000000000, 0.0000000000000000000, 0.0000000000000000000 ) ) ;
#13 = CC_DESIGN_PERSON_AND_ORGANIZATION_ASSIGNMENT ( #139, #159, ( #100 ) ) ;
#14 = EDGE_LOOP ( 'NONE', ( #171 ) ) ;
#15 = ORIENTED_EDGE ( 'NONE', *, *, #35, .T. ) ;
#16 = ADVANCED_FACE ( 'NONE', ( #55 ), #234, .T. ) ;
#17 = PERSON_AND_ORGANIZATION ( #161, #175 ) ;
#18 = CIRCLE ( 'NONE', #184, 2.440000000000024816 ) ;
#19 = APPROVAL ( #105, 'UNSPECIFIED' ) ;
#20 = ADVANCED_FACE ( 'NONE', ( #9, #109 ), #2, .T. ) ;
#21 = DIRECTION ( 'NONE',  ( -3.491481338843133355E-15, 1.224646799147353207E-16, -1.000000000000000000 ) ) ;
#22 = FACE_OUTER_BOUND ( 'NONE', #237, .T. ) ;
#23 = DIRECTION ( 'NONE',  ( 3.491481338843133355E-15, -1.224646799147353207E-16, 1.000000000000000000 ) ) ;
#24 = CARTESIAN_POINT ( 'NONE',  ( 1.396592535537252159E-15, -4.898587196589408145E-17, 0.3999999999999996336 ) ) ;
#25 = DIRECTION ( 'NONE',  ( 3.946577754891836734E-31, 1.000000000000000000, 1.333035457973967198E-16 ) ) ;
#26 = APPROVAL_ROLE ( '' ) ;
#27 = CARTESIAN_POINT ( 'NONE',  ( 2.793185071074506684E-13, 1.599999999999991207, 80.00000000000000000 ) ) ;
#28 = AXIS2_PLACEMENT_3D ( 'NONE', #226, #148, #233 ) ;
#29 = VERTEX_POINT ( 'NONE', #62 ) ;
#30 = EDGE_LOOP ( 'NONE', ( #179 ) ) ;
#31 = ADVANCED_FACE ( 'NONE', ( #110 ), #54, .F. ) ;
#32 = CIRCLE ( 'NONE', #162, 2.000000000000000888 ) ;
#33 = PERSON_AND_ORGANIZATION ( #161, #175 ) ;
#34 = LOCAL_TIME ( 13, 56, 50.00000000000000000, #150 ) ;
#35 = EDGE_CURVE ( 'NONE', #156, #156, #44, .T. ) ;
#36 = DIRECTION ( 'NONE',  ( -3.491481338843133355E-15, 1.224646799147353207E-16, -1.000000000000000000 ) ) ;
#37 = ORIENTED_EDGE ( 'NONE', *, *, #125, .T. ) ;
#38 = PLANE ( 'NONE',  #39 ) ;
#39 = AXIS2_PLACEMENT_3D ( 'NONE', #185, #203, #57 ) ;
#40 = CIRCLE ( 'NONE', #213, 2.440000000000024816 ) ;
#41 = CARTESIAN_POINT ( 'NONE',  ( 4.455864221804195553E-14, -1.562906779984622317E-15, 12.76210235533035942 ) ) ;
#42 = DIRECTION ( 'NONE',  ( 4.275831445896958607E-31, 1.000000000000000000, 1.224646799147353207E-16 ) ) ;
#43 = DIRECTION ( 'NONE',  ( 0.0000000000000000000, 1.000000000000000000, 0.0000000000000000000 ) ) ;
#44 = CIRCLE ( 'NONE', #47, 2.440000000000024816 ) ;
#45 = APPROVAL_DATE_TIME ( #137, #78 ) ;
#46 = CALENDAR_DATE ( 2021, 2, 12 ) ;
#47 = AXIS2_PLACEMENT_3D ( 'NONE', #24, #192, #25 ) ;
#48 = CALENDAR_DATE ( 2021, 2, 12 ) ;
#49 = COORDINATED_UNIVERSAL_TIME_OFFSET ( 1, 0, .AHEAD. ) ;
#50 = ADVANCED_FACE ( 'NONE', ( #108, #75 ), #146, .T. ) ;
#51 = CARTESIAN_POINT ( 'NONE',  ( 2.779219145719134403E-13, -9.748188521212932624E-15, 79.60000000000000853 ) ) ;
#52 = DIRECTION ( 'NONE',  ( -3.491481338843133355E-15, 1.224646799147353207E-16, -1.000000000000000000 ) ) ;
#53 = MANIFOLD_SOLID_BREP ( 'Corps-Déplacer/Copier1[1]', #191 ) ;
#54 = PLANE ( 'NONE',  #157 ) ;
#55 = FACE_OUTER_BOUND ( 'NONE', #176, .T. ) ;
#56 = LOCAL_TIME ( 13, 56, 50.00000000000000000, #49 ) ;
#57 = DIRECTION ( 'NONE',  ( 4.275831445896958607E-31, 1.000000000000000000, 1.224646799147353207E-16 ) ) ;
#58 = CARTESIAN_POINT ( 'NONE',  ( 0.0000000000000000000, 0.0000000000000000000, 0.0000000000000000000 ) ) ;
#59 = CARTESIAN_POINT ( 'NONE',  ( -4.361348074814947385E-31, 1.529754978315112221E-32, -1.249139735130314515E-16 ) ) ;
#60 = PERSON_AND_ORGANIZATION ( #161, #175 ) ;
#61 = ADVANCED_FACE ( 'NONE', ( #170, #89 ), #229, .T. ) ;
#62 = CARTESIAN_POINT ( 'NONE',  ( -1.710569414459005214E-46, 2.040000000000023128, 0.0000000000000000000 ) ) ;
#63 = CC_DESIGN_PERSON_AND_ORGANIZATION_ASSIGNMENT ( #33, #85, ( #167 ) ) ;
#64 = ORIENTED_EDGE ( 'NONE', *, *, #160, .T. ) ;
#65 = PERSON_AND_ORGANIZATION ( #161, #175 ) ;
#66 = EDGE_LOOP ( 'NONE', ( #37 ) ) ;
#67 = COORDINATED_UNIVERSAL_TIME_OFFSET ( 1, 0, .AHEAD. ) ;
#68 = APPROVAL_DATE_TIME ( #181, #19 ) ;
#69 = CC_DESIGN_DATE_AND_TIME_ASSIGNMENT ( #216, #221, ( #100 ) ) ;
#70 = EDGE_LOOP ( 'NONE', ( #96 ) ) ;
#71 = AXIS2_PLACEMENT_3D ( 'NONE', #227, #52, #126 ) ;
#72 = EDGE_LOOP ( 'NONE', ( #198 ) ) ;
#73 = DIRECTION ( 'NONE',  ( 0.0000000000000000000, 1.000000000000000000, 0.0000000000000000000 ) ) ;
#74 = PLANE ( 'NONE',  #223 ) ;
#75 = FACE_BOUND ( 'NONE', #141, .T. ) ;
#76 = PRODUCT_RELATED_PRODUCT_CATEGORY ( 'detail', '', ( #217 ) ) ;
#77 = CARTESIAN_POINT ( 'NONE',  ( 4.189777606611760026E-14, -1.469576158976823947E-15, 12.00000000000000000 ) ) ;
#78 = APPROVAL ( #210, 'UNSPECIFIED' ) ;
#79 = COORDINATED_UNIVERSAL_TIME_OFFSET ( 1, 0, .AHEAD. ) ;
#80 = VERTEX_POINT ( 'NONE', #27 ) ;
#81 = CIRCLE ( 'NONE', #115, 1.999999999999992228 ) ;
#82 = VERTEX_POINT ( 'NONE', #134 ) ;
#83 = ORIENTED_EDGE ( 'NONE', *, *, #118, .T. ) ;
#84 = AXIS2_PLACEMENT_3D ( 'NONE', #58, #21, #42 ) ;
#85 = PERSON_AND_ORGANIZATION_ROLE ( 'design_supplier' ) ;
#86 = CALENDAR_DATE ( 2021, 2, 12 ) ;
#87 = ADVANCED_FACE ( 'NONE', ( #147 ), #74, .T. ) ;
#88 = CARTESIAN_POINT ( 'NONE',  ( 4.189777606611760026E-14, 1.829706934847482922E-32, 12.00000000000000000 ) ) ;
#89 = FACE_OUTER_BOUND ( 'NONE', #72, .T. ) ;
#90 = FACE_OUTER_BOUND ( 'NONE', #113, .T. ) ;
#91 = DIRECTION ( 'NONE',  ( 0.0000000000000000000, 1.000000000000000000, 0.0000000000000000000 ) ) ;
#92 = AXIS2_PLACEMENT_3D ( 'NONE', #107, #231, #91 ) ;
#93 = CC_DESIGN_APPROVAL ( #120, ( #167 ) ) ;
#94 = EDGE_CURVE ( 'NONE', #82, #82, #18, .T. ) ;
#95 = DIRECTION ( 'NONE',  ( -3.491481338843133355E-15, 1.224646799147353207E-16, -1.000000000000000000 ) ) ;
#96 = ORIENTED_EDGE ( 'NONE', *, *, #232, .F. ) ;
#97 = ORIENTED_EDGE ( 'NONE', *, *, #232, .T. ) ;
#98 = DIRECTION ( 'NONE',  ( 1.000000000000000000, 0.0000000000000000000, 0.0000000000000000000 ) ) ;
#99 = CONICAL_SURFACE ( 'NONE', #151, 2.040000000000023128, 0.7853981633974502774 ) ;
#100 = SECURITY_CLASSIFICATION ( '', '', #140 ) ;
#101 = PERSON_AND_ORGANIZATION_ROLE ( 'creator' ) ;
#102 = DIRECTION ( 'NONE',  ( 0.0000000000000000000, 1.000000000000000000, 0.0000000000000000000 ) ) ;
#103 = CARTESIAN_POINT ( 'NONE',  ( 2.779219145719134403E-13, 1.999999999999991340, 79.60000000000000853 ) ) ;
#104 = EDGE_CURVE ( 'NONE', #80, #80, #122, .T. ) ;
#105 = APPROVAL_STATUS ( 'not_yet_approved' ) ;
#106 = CARTESIAN_POINT ( 'NONE',  ( -8.722696149629894769E-31, 3.059509956630224443E-32, -2.498279470260629030E-16 ) ) ;
#107 = CARTESIAN_POINT ( 'NONE',  ( 2.793185071074506684E-13, -9.797174393178826052E-15, 80.00000000000000000 ) ) ;
#108 = FACE_OUTER_BOUND ( 'NONE', #214, .T. ) ;
#109 = FACE_OUTER_BOUND ( 'NONE', #66, .T. ) ;
#110 = FACE_OUTER_BOUND ( 'NONE', #30, .T. ) ;
#111 = PRODUCT_DEFINITION_SHAPE ( 'NONE', 'NONE',  #207 ) ;
#112 = APPROVAL_DATE_TIME ( #131, #120 ) ;
#113 = EDGE_LOOP ( 'NONE', ( #83 ) ) ;
#114 = CALENDAR_DATE ( 2021, 2, 12 ) ;
#115 = AXIS2_PLACEMENT_3D ( 'NONE', #41, #204, #102 ) ;
#116 = VERTEX_POINT ( 'NONE', #133 ) ;
#117 = DATE_AND_TIME ( #48, #34 ) ;
#118 = EDGE_CURVE ( 'NONE', #208, #208, #40, .T. ) ;
#119 = SHAPE_DEFINITION_REPRESENTATION ( #111, #225 ) ;
#120 = APPROVAL ( #149, 'UNSPECIFIED' ) ;
#121 = CALENDAR_DATE ( 2021, 2, 12 ) ;
#122 = CIRCLE ( 'NONE', #28, 1.600000000000000977 ) ;
#123 = CC_DESIGN_APPROVAL ( #19, ( #100 ) ) ;
#124 = DIRECTION ( 'NONE',  ( -3.491481338843133355E-15, 1.224646799147353207E-16, -1.000000000000000000 ) ) ;
#125 = EDGE_CURVE ( 'NONE', #195, #195, #32, .T. ) ;
#126 = DIRECTION ( 'NONE',  ( 4.275831445896958607E-31, 1.000000000000000000, 1.224646799147353207E-16 ) ) ;
#127 = LOCAL_TIME ( 13, 56, 50.00000000000000000, #67 ) ;
#128 = CARTESIAN_POINT ( 'NONE',  ( -8.722696149629894769E-31, 3.059509956630224443E-32, -2.498279470260629030E-16 ) ) ;
#129 = FACE_BOUND ( 'NONE', #14, .T. ) ;
#130 = DIRECTION ( 'NONE',  ( -3.491481338843133355E-15, 1.224646799147353207E-16, -1.000000000000000000 ) ) ;
#131 = DATE_AND_TIME ( #46, #136 ) ;
#132 = AXIS2_PLACEMENT_3D ( 'NONE', #168, #95, #73 ) ;
#133 = CARTESIAN_POINT ( 'NONE',  ( 4.455864221804195553E-14, 1.999999999999990452, 12.76210235533035942 ) ) ;
#134 = CARTESIAN_POINT ( 'NONE',  ( 4.189777606611760026E-14, 2.440000000000023483, 12.00000000000000000 ) ) ;
#135 = CLOSED_SHELL ( 'NONE', ( #172, #87, #16, #218 ) ) ;
#136 = LOCAL_TIME ( 13, 56, 50.00000000000000000, #79 ) ;
#137 = DATE_AND_TIME ( #114, #127 ) ;
#138 = CC_DESIGN_PERSON_AND_ORGANIZATION_ASSIGNMENT ( #60, #10, ( #217 ) ) ;
#139 = PERSON_AND_ORGANIZATION ( #161, #175 ) ;
#140 = SECURITY_CLASSIFICATION_LEVEL ( 'unclassified' ) ;
#141 = EDGE_LOOP ( 'NONE', ( #186 ) ) ;
#142 = DIRECTION ( 'NONE',  ( -4.275831445896958607E-31, -1.000000000000000000, -1.224646799147353207E-16 ) ) ;
#143 = CYLINDRICAL_SURFACE ( 'NONE', #71, 2.440000000000024816 ) ;
#144 = DIRECTION ( 'NONE',  ( 0.0000000000000000000, 1.000000000000000000, 0.0000000000000000000 ) ) ;
#145 = UNCERTAINTY_MEASURE_WITH_UNIT (LENGTH_MEASURE( 1.000000000000000082E-05 ), #193, 'distance_accuracy_value', 'NONE');
#146 = CONICAL_SURFACE ( 'NONE', #92, 1.600000000000000977, 0.7853981633974512766 ) ;
#147 = FACE_OUTER_BOUND ( 'NONE', #153, .T. ) ;
#148 = DIRECTION ( 'NONE',  ( -3.491481338843133355E-15, 1.224646799147353207E-16, -1.000000000000000000 ) ) ;
#149 = APPROVAL_STATUS ( 'not_yet_approved' ) ;
#150 = COORDINATED_UNIVERSAL_TIME_OFFSET ( 1, 0, .AHEAD. ) ;
#151 = AXIS2_PLACEMENT_3D ( 'NONE', #128, #4, #228 ) ;
#152 = DIRECTION ( 'NONE',  ( 0.0000000000000000000, 0.0000000000000000000, 1.000000000000000000 ) ) ;
#153 = EDGE_LOOP ( 'NONE', ( #224 ) ) ;
#154 =( NAMED_UNIT ( * ) PLANE_ANGLE_UNIT ( ) SI_UNIT ( $, .RADIAN. ) );
#155 = ORIENTED_EDGE ( 'NONE', *, *, #35, .F. ) ;
#156 = VERTEX_POINT ( 'NONE', #177 ) ;
#157 = AXIS2_PLACEMENT_3D ( 'NONE', #189, #8, #5 ) ;
#158 = COORDINATED_UNIVERSAL_TIME_OFFSET ( 1, 0, .AHEAD. ) ;
#159 = PERSON_AND_ORGANIZATION_ROLE ( 'classification_officer' ) ;
#160 = EDGE_CURVE ( 'NONE', #29, #29, #199, .T. ) ;
#161 = PERSON ( 'UNSPECIFIED', 'UNSPECIFIED', 'UNSPECIFIED', ('UNSPECIFIED'), ('UNSPECIFIED'), ('UNSPECIFIED') ) ;
#162 = AXIS2_PLACEMENT_3D ( 'NONE', #51, #36, #43 ) ;
#163 = DIRECTION ( 'NONE',  ( 4.275831445896958607E-31, 1.000000000000000000, 1.224646799147353207E-16 ) ) ;
#164 = DIRECTION ( 'NONE',  ( -3.491481338843133355E-15, 1.224646799147353207E-16, -1.000000000000000000 ) ) ;
#165 = FACE_OUTER_BOUND ( 'NONE', #1, .T. ) ;
#166 = APPLICATION_CONTEXT ( 'configuration controlled 3d designs of mechanical parts and assemblies' ) ;
#167 = PRODUCT_DEFINITION_FORMATION_WITH_SPECIFIED_SOURCE ( 'ANY', '', #217, .NOT_KNOWN. ) ;
#168 = CARTESIAN_POINT ( 'NONE',  ( 4.189777606611760026E-14, -1.469576158976823947E-15, 12.00000000000000000 ) ) ;
#169 = APPROVAL_PERSON_ORGANIZATION ( #17, #19, #219 ) ;
#170 = FACE_BOUND ( 'NONE', #239, .T. ) ;
#171 = ORIENTED_EDGE ( 'NONE', *, *, #160, .F. ) ;
#172 = ADVANCED_FACE ( 'NONE', ( #90, #165 ), #143, .T. ) ;
#173 = CC_DESIGN_DATE_AND_TIME_ASSIGNMENT ( #117, #178, ( #207 ) ) ;
#174 = PERSON_AND_ORGANIZATION_ROLE ( 'creator' ) ;
#175 = ORGANIZATION ( 'UNSPECIFIED', 'UNSPECIFIED', '' ) ;
#176 = EDGE_LOOP ( 'NONE', ( #64 ) ) ;
#177 = CARTESIAN_POINT ( 'NONE',  ( 1.396592535537253145E-15, 2.440000000000024816, 0.3999999999999999667 ) ) ;
#178 = DATE_TIME_ROLE ( 'creation_date' ) ;
#179 = ORIENTED_EDGE ( 'NONE', *, *, #94, .T. ) ;
#180 = AXIS2_PLACEMENT_3D ( 'NONE', #106, #187, #183 ) ;
#181 = DATE_AND_TIME ( #86, #56 ) ;
#182 = ADVANCED_FACE ( 'NONE', ( #202 ), #38, .F. ) ;
#183 = DIRECTION ( 'NONE',  ( 4.275831445896958607E-31, 1.000000000000000000, 1.224646799147353207E-16 ) ) ;
#184 = AXIS2_PLACEMENT_3D ( 'NONE', #77, #124, #144 ) ;
#185 = CARTESIAN_POINT ( 'NONE',  ( 2.793185071074506684E-13, 1.199807826129472128E-32, 80.00000000000000000 ) ) ;
#186 = ORIENTED_EDGE ( 'NONE', *, *, #104, .T. ) ;
#187 = DIRECTION ( 'NONE',  ( -3.491481338843133355E-15, 1.224646799147353207E-16, -1.000000000000000000 ) ) ;
#188 = CC_DESIGN_PERSON_AND_ORGANIZATION_ASSIGNMENT ( #194, #174, ( #167 ) ) ;
#189 = CARTESIAN_POINT ( 'NONE',  ( 4.189777606611760026E-14, 1.829706934847482922E-32, 12.00000000000000000 ) ) ;
#190 = DESIGN_CONTEXT ( 'detailed design', #166, 'design' ) ;
#191 = CLOSED_SHELL ( 'NONE', ( #31, #61, #20, #50, #182 ) ) ;
#192 = DIRECTION ( 'NONE',  ( -3.491481338843133355E-15, 1.224646799147353207E-16, -1.000000000000000000 ) ) ;
#193 =( LENGTH_UNIT ( ) NAMED_UNIT ( * ) SI_UNIT ( .MILLI., .METRE. ) );
#194 = PERSON_AND_ORGANIZATION ( #161, #175 ) ;
#195 = VERTEX_POINT ( 'NONE', #103 ) ;
#196 = AXIS2_PLACEMENT_3D ( 'NONE', #59, #130, #163 ) ;
#197 =( NAMED_UNIT ( * ) SI_UNIT ( $, .STERADIAN. ) SOLID_ANGLE_UNIT ( ) );
#198 = ORIENTED_EDGE ( 'NONE', *, *, #94, .F. ) ;
#199 = CIRCLE ( 'NONE', #180, 2.040000000000023128 ) ;
#200 = DIRECTION ( 'NONE',  ( 0.0000000000000000000, 1.000000000000000000, 0.0000000000000000000 ) ) ;
#201 = EDGE_LOOP ( 'NONE', ( #211 ) ) ;
#202 = FACE_OUTER_BOUND ( 'NONE', #201, .T. ) ;
#203 = DIRECTION ( 'NONE',  ( -3.491481338843133355E-15, 1.224646799147353207E-16, -1.000000000000000000 ) ) ;
#204 = DIRECTION ( 'NONE',  ( -3.491481338843133355E-15, 1.224646799147353207E-16, -1.000000000000000000 ) ) ;
#205 = APPLICATION_CONTEXT ( 'configuration controlled 3d designs of mechanical parts and assemblies' ) ;
#206 = CARTESIAN_POINT ( 'NONE',  ( 4.189777606611760026E-14, -1.469576158976823947E-15, 12.00000000000000000 ) ) ;
#207 = PRODUCT_DEFINITION ( 'UNKNOWN', '', #167, #190 ) ;
#208 = VERTEX_POINT ( 'NONE', #238 ) ;
#209 = APPROVAL_ROLE ( '' ) ;
#210 = APPROVAL_STATUS ( 'not_yet_approved' ) ;
#211 = ORIENTED_EDGE ( 'NONE', *, *, #104, .F. ) ;
#212 = APPLICATION_PROTOCOL_DEFINITION ( 'international standard', 'config_control_design', 1994, #166 ) ;
#213 = AXIS2_PLACEMENT_3D ( 'NONE', #206, #164, #200 ) ;
#214 = EDGE_LOOP ( 'NONE', ( #3 ) ) ;
#215 = PERSON_AND_ORGANIZATION ( #161, #175 ) ;
#216 = DATE_AND_TIME ( #121, #230 ) ;
#217 = PRODUCT ( '321714', '321714', '', ( #240 ) ) ;
#218 = ADVANCED_FACE ( 'NONE', ( #22, #129 ), #99, .T. ) ;
#219 = APPROVAL_ROLE ( '' ) ;
#220 =( GEOMETRIC_REPRESENTATION_CONTEXT ( 3 ) GLOBAL_UNCERTAINTY_ASSIGNED_CONTEXT ( ( #145 ) ) GLOBAL_UNIT_ASSIGNED_CONTEXT ( ( #193, #154, #197 ) ) REPRESENTATION_CONTEXT ( 'NONE', 'WORKASPACE' ) );
#221 = DATE_TIME_ROLE ( 'classification_date' ) ;
#222 = MANIFOLD_SOLID_BREP ( 'Corps-Déplacer/Copier1[2]', #135 ) ;
#223 = AXIS2_PLACEMENT_3D ( 'NONE', #88, #23, #142 ) ;
#224 = ORIENTED_EDGE ( 'NONE', *, *, #118, .F. ) ;
#225 = ADVANCED_BREP_SHAPE_REPRESENTATION ( '321714', ( #53, #222, #11 ), #220 ) ;
#226 = CARTESIAN_POINT ( 'NONE',  ( 2.793185071074506684E-13, -9.797174393178826052E-15, 80.00000000000000000 ) ) ;
#227 = CARTESIAN_POINT ( 'NONE',  ( 0.0000000000000000000, 0.0000000000000000000, 0.0000000000000000000 ) ) ;
#228 = DIRECTION ( 'NONE',  ( -4.275831445896958607E-31, -1.000000000000000000, -1.224646799147353207E-16 ) ) ;
#229 = CONICAL_SURFACE ( 'NONE', #132, 2.440000000000024816, 0.5235987755983003700 ) ;
#230 = LOCAL_TIME ( 13, 56, 50.00000000000000000, #158 ) ;
#231 = DIRECTION ( 'NONE',  ( -3.491481338843133355E-15, 1.224646799147353207E-16, -1.000000000000000000 ) ) ;
#232 = EDGE_CURVE ( 'NONE', #116, #116, #81, .T. ) ;
#233 = DIRECTION ( 'NONE',  ( 0.0000000000000000000, 1.000000000000000000, 0.0000000000000000000 ) ) ;
#234 = PLANE ( 'NONE',  #196 ) ;
#235 = PERSON_AND_ORGANIZATION ( #161, #175 ) ;
#236 = APPLICATION_PROTOCOL_DEFINITION ( 'international standard', 'config_control_design', 1994, #205 ) ;
#237 = EDGE_LOOP ( 'NONE', ( #15 ) ) ;
#238 = CARTESIAN_POINT ( 'NONE',  ( 4.189777606611760026E-14, 2.440000000000023483, 12.00000000000000000 ) ) ;
#239 = EDGE_LOOP ( 'NONE', ( #97 ) ) ;
#240 = MECHANICAL_CONTEXT ( 'NONE', #205, 'mechanical' ) ;
#241 = APPROVAL_PERSON_ORGANIZATION ( #235, #120, #209 ) ;
#242 = CC_DESIGN_PERSON_AND_ORGANIZATION_ASSIGNMENT ( #215, #101, ( #207 ) ) ;
#243 = APPROVAL_PERSON_ORGANIZATION ( #65, #78, #26 ) ;
ENDSEC;
END-ISO-10303-21;
