ISO-10303-21;
HEADER;
FILE_DESCRIPTION (( 'STEP AP203' ),
    '1' );
FILE_NAME ('321713.step',
    '2021-12-02T12:56:50',
    ( '' ),
    ( '' ),
    'SwSTEP 2.0',
    'SolidWorks 2019',
    '' );
FILE_SCHEMA (( 'CONFIG_CONTROL_DESIGN' ));
ENDSEC;

DATA;
#1 = ORIENTED_EDGE ( 'NONE', *, *, #14, .F. ) ;
#2 = PLANE ( 'NONE',  #178 ) ;
#3 = CALENDAR_DATE ( 2021, 2, 12 ) ;
#4 = FACE_OUTER_BOUND ( 'NONE', #209, .T. ) ;
#5 = PERSON_AND_ORGANIZATION_ROLE ( 'creator' ) ;
#6 = CARTESIAN_POINT ( 'NONE',  ( -8.701316992400410055E-31, 3.052011157716915100E-32, -2.492156236264892155E-16 ) ) ;
#7 = DIRECTION ( 'NONE',  ( -3.491481338843133355E-15, 1.224646799147353207E-16, -1.000000000000000000 ) ) ;
#8 = DIRECTION ( 'NONE',  ( 0.0000000000000000000, 0.0000000000000000000, 1.000000000000000000 ) ) ;
#9 = CARTESIAN_POINT ( 'NONE',  ( 4.189777606611760026E-14, 2.435000000000023590, 12.00000000000000000 ) ) ;
#10 = DIRECTION ( 'NONE',  ( 0.0000000000000000000, 1.000000000000000000, 0.0000000000000000000 ) ) ;
#11 = CIRCLE ( 'NONE', #39, 1.600000000000000977 ) ;
#12 = VERTEX_POINT ( 'NONE', #26 ) ;
#13 = EDGE_LOOP ( 'NONE', ( #207 ) ) ;
#14 = EDGE_CURVE ( 'NONE', #220, #220, #68, .T. ) ;
#15 = ORIENTED_EDGE ( 'NONE', *, *, #189, .T. ) ;
#16 = AXIS2_PLACEMENT_3D ( 'NONE', #171, #84, #10 ) ;
#17 = FACE_OUTER_BOUND ( 'NONE', #174, .T. ) ;
#18 = EDGE_CURVE ( 'NONE', #47, #47, #97, .T. ) ;
#19 = PERSON_AND_ORGANIZATION ( #177, #136 ) ;
#20 = AXIS2_PLACEMENT_3D ( 'NONE', #6, #236, #184 ) ;
#21 = DIRECTION ( 'NONE',  ( -3.491481338843133355E-15, 1.224646799147353207E-16, -1.000000000000000000 ) ) ;
#22 = FACE_OUTER_BOUND ( 'NONE', #73, .T. ) ;
#23 = PERSON_AND_ORGANIZATION ( #177, #136 ) ;
#24 = DIRECTION ( 'NONE',  ( -3.491481338843133355E-15, 1.224646799147353207E-16, -1.000000000000000000 ) ) ;
#25 = DIRECTION ( 'NONE',  ( 4.275831445896958607E-31, 1.000000000000000000, 1.224646799147353207E-16 ) ) ;
#26 = CARTESIAN_POINT ( 'NONE',  ( 2.793185071074506684E-13, 1.599999999999991207, 80.00000000000000000 ) ) ;
#27 = LOCAL_TIME ( 13, 56, 50.00000000000000000, #36 ) ;
#28 = CC_DESIGN_PERSON_AND_ORGANIZATION_ASSIGNMENT ( #187, #85, ( #142 ) ) ;
#29 = CARTESIAN_POINT ( 'NONE',  ( 0.0000000000000000000, 0.0000000000000000000, 0.0000000000000000000 ) ) ;
#30 = CONICAL_SURFACE ( 'NONE', #20, 2.035000000000023235, 0.7853981633974502774 ) ;
#31 = ORIENTED_EDGE ( 'NONE', *, *, #156, .F. ) ;
#32 = ORIENTED_EDGE ( 'NONE', *, *, #205, .F. ) ;
#33 =( GEOMETRIC_REPRESENTATION_CONTEXT ( 3 ) GLOBAL_UNCERTAINTY_ASSIGNED_CONTEXT ( ( #202 ) ) GLOBAL_UNIT_ASSIGNED_CONTEXT ( ( #126, #86, #168 ) ) REPRESENTATION_CONTEXT ( 'NONE', 'WORKASPACE' ) );
#34 = CC_DESIGN_DATE_AND_TIME_ASSIGNMENT ( #200, #80, ( #194 ) ) ;
#35 = DIRECTION ( 'NONE',  ( -3.491481338843133355E-15, 1.224646799147353207E-16, -1.000000000000000000 ) ) ;
#36 = COORDINATED_UNIVERSAL_TIME_OFFSET ( 1, 0, .AHEAD. ) ;
#37 = DIRECTION ( 'NONE',  ( 3.491481338843133355E-15, -1.224646799147353207E-16, 1.000000000000000000 ) ) ;
#38 = APPROVAL_DATE_TIME ( #65, #145 ) ;
#39 = AXIS2_PLACEMENT_3D ( 'NONE', #143, #81, #185 ) ;
#40 = DIRECTION ( 'NONE',  ( -3.491481338843133355E-15, 1.224646799147353207E-16, -1.000000000000000000 ) ) ;
#41 = FACE_OUTER_BOUND ( 'NONE', #52, .T. ) ;
#42 = CALENDAR_DATE ( 2021, 2, 12 ) ;
#43 = CC_DESIGN_DATE_AND_TIME_ASSIGNMENT ( #134, #102, ( #49 ) ) ;
#44 = PLANE ( 'NONE',  #110 ) ;
#45 = ADVANCED_FACE ( 'NONE', ( #215 ), #75, .T. ) ;
#46 = VERTEX_POINT ( 'NONE', #82 ) ;
#47 = VERTEX_POINT ( 'NONE', #219 ) ;
#48 = AXIS2_PLACEMENT_3D ( 'NONE', #101, #141, #114 ) ;
#49 = SECURITY_CLASSIFICATION ( '', '', #165 ) ;
#50 = EDGE_LOOP ( 'NONE', ( #70 ) ) ;
#51 = CONICAL_SURFACE ( 'NONE', #226, 2.435000000000024922, 0.5235987755983000369 ) ;
#52 = EDGE_LOOP ( 'NONE', ( #15 ) ) ;
#53 = MANIFOLD_SOLID_BREP ( 'Corps-Déplacer/Copier1[1]', #140 ) ;
#54 = CARTESIAN_POINT ( 'NONE',  ( 2.779219145719134403E-13, -9.748188521212932624E-15, 79.60000000000000853 ) ) ;
#55 = ADVANCED_FACE ( 'NONE', ( #22, #160 ), #30, .T. ) ;
#56 = CARTESIAN_POINT ( 'NONE',  ( 4.189777606611760026E-14, 1.825957535390828524E-32, 12.00000000000000000 ) ) ;
#57 = DIRECTION ( 'NONE',  ( -3.491481338843133355E-15, 1.224646799147353207E-16, -1.000000000000000000 ) ) ;
#58 = ADVANCED_FACE ( 'NONE', ( #196 ), #44, .T. ) ;
#59 = ADVANCED_FACE ( 'NONE', ( #4, #125 ), #163, .T. ) ;
#60 = LOCAL_TIME ( 13, 56, 50.00000000000000000, #195 ) ;
#61 = APPROVAL_DATE_TIME ( #232, #88 ) ;
#62 = CARTESIAN_POINT ( 'NONE',  ( 2.793185071074506684E-13, 1.199807826129472128E-32, 80.00000000000000000 ) ) ;
#63 = CARTESIAN_POINT ( 'NONE',  ( 4.189777606611760026E-14, -1.469576158976823947E-15, 12.00000000000000000 ) ) ;
#64 = DIRECTION ( 'NONE',  ( 3.491481338843133355E-15, -1.224646799147353207E-16, 1.000000000000000000 ) ) ;
#65 = DATE_AND_TIME ( #98, #60 ) ;
#66 = CARTESIAN_POINT ( 'NONE',  ( 4.452840510267918049E-14, 1.999999999999990452, 12.75344210129251543 ) ) ;
#67 = ADVANCED_FACE ( 'NONE', ( #235, #117 ), #51, .T. ) ;
#68 = CIRCLE ( 'NONE', #92, 2.000000000000000888 ) ;
#69 = EDGE_CURVE ( 'NONE', #186, #186, #118, .T. ) ;
#70 = ORIENTED_EDGE ( 'NONE', *, *, #18, .F. ) ;
#71 = AXIS2_PLACEMENT_3D ( 'NONE', #179, #133, #157 ) ;
#72 = EDGE_LOOP ( 'NONE', ( #155 ) ) ;
#73 = EDGE_LOOP ( 'NONE', ( #112 ) ) ;
#74 = FACE_OUTER_BOUND ( 'NONE', #13, .T. ) ;
#75 = PLANE ( 'NONE',  #240 ) ;
#76 = COORDINATED_UNIVERSAL_TIME_OFFSET ( 1, 0, .AHEAD. ) ;
#77 = PLANE ( 'NONE',  #191 ) ;
#78 = AXIS2_PLACEMENT_3D ( 'NONE', #29, #8, #150 ) ;
#79 = CARTESIAN_POINT ( 'NONE',  ( 4.189777606611760026E-14, 1.825957535390828524E-32, 12.00000000000000000 ) ) ;
#80 = DATE_TIME_ROLE ( 'creation_date' ) ;
#81 = DIRECTION ( 'NONE',  ( -3.491481338843133355E-15, 1.224646799147353207E-16, -1.000000000000000000 ) ) ;
#82 = CARTESIAN_POINT ( 'NONE',  ( 1.396592535537253145E-15, 2.435000000000024922, 0.3999999999999999667 ) ) ;
#83 = CC_DESIGN_APPROVAL ( #88, ( #49 ) ) ;
#84 = DIRECTION ( 'NONE',  ( -3.491481338843133355E-15, 1.224646799147353207E-16, -1.000000000000000000 ) ) ;
#85 = PERSON_AND_ORGANIZATION_ROLE ( 'design_owner' ) ;
#86 =( NAMED_UNIT ( * ) PLANE_ANGLE_UNIT ( ) SI_UNIT ( $, .RADIAN. ) );
#87 = AXIS2_PLACEMENT_3D ( 'NONE', #123, #24, #103 ) ;
#88 = APPROVAL ( #162, 'UNSPECIFIED' ) ;
#89 = EDGE_LOOP ( 'NONE', ( #31 ) ) ;
#90 = CC_DESIGN_PERSON_AND_ORGANIZATION_ASSIGNMENT ( #122, #138, ( #175 ) ) ;
#91 = ORIENTED_EDGE ( 'NONE', *, *, #189, .F. ) ;
#92 = AXIS2_PLACEMENT_3D ( 'NONE', #54, #40, #210 ) ;
#93 = ORIENTED_EDGE ( 'NONE', *, *, #109, .F. ) ;
#94 = LOCAL_TIME ( 13, 56, 50.00000000000000000, #230 ) ;
#95 = CC_DESIGN_PERSON_AND_ORGANIZATION_ASSIGNMENT ( #120, #116, ( #49 ) ) ;
#96 = CARTESIAN_POINT ( 'NONE',  ( 2.793185071074506684E-13, -9.797174393178826052E-15, 80.00000000000000000 ) ) ;
#97 = CIRCLE ( 'NONE', #208, 2.035000000000023235 ) ;
#98 = CALENDAR_DATE ( 2021, 2, 12 ) ;
#99 = DIRECTION ( 'NONE',  ( 0.0000000000000000000, 1.000000000000000000, 0.0000000000000000000 ) ) ;
#100 = PERSON_AND_ORGANIZATION ( #177, #136 ) ;
#101 = CARTESIAN_POINT ( 'NONE',  ( 4.452840510267918049E-14, -1.561846204745897273E-15, 12.75344210129251543 ) ) ;
#102 = DATE_TIME_ROLE ( 'classification_date' ) ;
#103 = DIRECTION ( 'NONE',  ( 0.0000000000000000000, 1.000000000000000000, 0.0000000000000000000 ) ) ;
#104 = DIRECTION ( 'NONE',  ( 4.275831445896958607E-31, 1.000000000000000000, 1.224646799147353207E-16 ) ) ;
#105 = CARTESIAN_POINT ( 'NONE',  ( 4.189777606611760026E-14, 2.435000000000023590, 12.00000000000000000 ) ) ;
#106 = CONICAL_SURFACE ( 'NONE', #243, 1.600000000000000977, 0.7853981633974512766 ) ;
#107 = APPLICATION_CONTEXT ( 'configuration controlled 3d designs of mechanical parts and assemblies' ) ;
#108 = CALENDAR_DATE ( 2021, 2, 12 ) ;
#109 = EDGE_CURVE ( 'NONE', #12, #12, #11, .T. ) ;
#110 = AXIS2_PLACEMENT_3D ( 'NONE', #79, #64, #201 ) ;
#111 = ORIENTED_EDGE ( 'NONE', *, *, #69, .F. ) ;
#112 = ORIENTED_EDGE ( 'NONE', *, *, #156, .T. ) ;
#113 = ADVANCED_FACE ( 'NONE', ( #216, #74 ), #213, .T. ) ;
#114 = DIRECTION ( 'NONE',  ( 0.0000000000000000000, 1.000000000000000000, 0.0000000000000000000 ) ) ;
#115 = CC_DESIGN_SECURITY_CLASSIFICATION ( #49, ( #175 ) ) ;
#116 = PERSON_AND_ORGANIZATION_ROLE ( 'classification_officer' ) ;
#117 = FACE_OUTER_BOUND ( 'NONE', #132, .T. ) ;
#118 = CIRCLE ( 'NONE', #48, 1.999999999999992228 ) ;
#119 = APPLICATION_CONTEXT ( 'configuration controlled 3d designs of mechanical parts and assemblies' ) ;
#120 = PERSON_AND_ORGANIZATION ( #177, #136 ) ;
#121 = CARTESIAN_POINT ( 'NONE',  ( 0.0000000000000000000, 0.0000000000000000000, 0.0000000000000000000 ) ) ;
#122 = PERSON_AND_ORGANIZATION ( #177, #136 ) ;
#123 = CARTESIAN_POINT ( 'NONE',  ( 4.189777606611760026E-14, -1.469576158976823947E-15, 12.00000000000000000 ) ) ;
#124 = AXIS2_PLACEMENT_3D ( 'NONE', #199, #35, #233 ) ;
#125 = FACE_OUTER_BOUND ( 'NONE', #89, .T. ) ;
#126 =( LENGTH_UNIT ( ) NAMED_UNIT ( * ) SI_UNIT ( .MILLI., .METRE. ) );
#127 = APPLICATION_PROTOCOL_DEFINITION ( 'international standard', 'config_control_design', 1994, #107 ) ;
#128 = COORDINATED_UNIVERSAL_TIME_OFFSET ( 1, 0, .AHEAD. ) ;
#129 = CLOSED_SHELL ( 'NONE', ( #59, #58, #45, #55 ) ) ;
#130 = ADVANCED_BREP_SHAPE_REPRESENTATION ( '321713', ( #53, #225, #78 ), #33 ) ;
#131 = APPROVAL ( #147, 'UNSPECIFIED' ) ;
#132 = EDGE_LOOP ( 'NONE', ( #91 ) ) ;
#133 = DIRECTION ( 'NONE',  ( -3.491481338843133355E-15, 1.224646799147353207E-16, -1.000000000000000000 ) ) ;
#134 = DATE_AND_TIME ( #3, #94 ) ;
#135 = CARTESIAN_POINT ( 'NONE',  ( -8.701316992400410055E-31, 3.052011157716915100E-32, -2.492156236264892155E-16 ) ) ;
#136 = ORGANIZATION ( 'UNSPECIFIED', 'UNSPECIFIED', '' ) ;
#137 = CC_DESIGN_PERSON_AND_ORGANIZATION_ASSIGNMENT ( #23, #5, ( #194 ) ) ;
#138 = PERSON_AND_ORGANIZATION_ROLE ( 'design_supplier' ) ;
#139 = DIRECTION ( 'NONE',  ( -3.491481338843133355E-15, 1.224646799147353207E-16, -1.000000000000000000 ) ) ;
#140 = CLOSED_SHELL ( 'NONE', ( #153, #67, #113, #182, #173 ) ) ;
#141 = DIRECTION ( 'NONE',  ( -3.491481338843133355E-15, 1.224646799147353207E-16, -1.000000000000000000 ) ) ;
#142 = PRODUCT ( '321713', '321713', '', ( #146 ) ) ;
#143 = CARTESIAN_POINT ( 'NONE',  ( 2.793185071074506684E-13, -9.797174393178826052E-15, 80.00000000000000000 ) ) ;
#144 = PERSON_AND_ORGANIZATION_ROLE ( 'creator' ) ;
#145 = APPROVAL ( #237, 'UNSPECIFIED' ) ;
#146 = MECHANICAL_CONTEXT ( 'NONE', #107, 'mechanical' ) ;
#147 = APPROVAL_STATUS ( 'not_yet_approved' ) ;
#148 = CC_DESIGN_PERSON_AND_ORGANIZATION_ASSIGNMENT ( #19, #144, ( #175 ) ) ;
#149 = CIRCLE ( 'NONE', #16, 2.435000000000024922 ) ;
#150 = DIRECTION ( 'NONE',  ( 1.000000000000000000, 0.0000000000000000000, 0.0000000000000000000 ) ) ;
#151 = EDGE_LOOP ( 'NONE', ( #227 ) ) ;
#152 = ORIENTED_EDGE ( 'NONE', *, *, #69, .T. ) ;
#153 = ADVANCED_FACE ( 'NONE', ( #41 ), #77, .F. ) ;
#154 = EDGE_LOOP ( 'NONE', ( #93 ) ) ;
#155 = ORIENTED_EDGE ( 'NONE', *, *, #109, .T. ) ;
#156 = EDGE_CURVE ( 'NONE', #46, #46, #212, .T. ) ;
#157 = DIRECTION ( 'NONE',  ( 4.275831445896958607E-31, 1.000000000000000000, 1.224646799147353207E-16 ) ) ;
#158 = DIRECTION ( 'NONE',  ( 0.0000000000000000000, 1.000000000000000000, 0.0000000000000000000 ) ) ;
#159 = APPROVAL_DATE_TIME ( #188, #131 ) ;
#160 = FACE_BOUND ( 'NONE', #50, .T. ) ;
#161 = CC_DESIGN_APPROVAL ( #145, ( #175 ) ) ;
#162 = APPROVAL_STATUS ( 'not_yet_approved' ) ;
#163 = CYLINDRICAL_SURFACE ( 'NONE', #169, 2.435000000000024922 ) ;
#164 = DIRECTION ( 'NONE',  ( -3.491481338843133355E-15, 1.224646799147353207E-16, -1.000000000000000000 ) ) ;
#165 = SECURITY_CLASSIFICATION_LEVEL ( 'unclassified' ) ;
#166 = VERTEX_POINT ( 'NONE', #105 ) ;
#167 = APPROVAL_PERSON_ORGANIZATION ( #100, #145, #180 ) ;
#168 =( NAMED_UNIT ( * ) SI_UNIT ( $, .STERADIAN. ) SOLID_ANGLE_UNIT ( ) );
#169 = AXIS2_PLACEMENT_3D ( 'NONE', #121, #21, #104 ) ;
#170 = APPLICATION_PROTOCOL_DEFINITION ( 'international standard', 'config_control_design', 1994, #119 ) ;
#171 = CARTESIAN_POINT ( 'NONE',  ( 4.189777606611760026E-14, -1.469576158976823947E-15, 12.00000000000000000 ) ) ;
#172 = CC_DESIGN_APPROVAL ( #131, ( #194 ) ) ;
#173 = ADVANCED_FACE ( 'NONE', ( #193 ), #2, .F. ) ;
#174 = EDGE_LOOP ( 'NONE', ( #1 ) ) ;
#175 = PRODUCT_DEFINITION_FORMATION_WITH_SPECIFIED_SOURCE ( 'ANY', '', #142, .NOT_KNOWN. ) ;
#176 = EDGE_LOOP ( 'NONE', ( #111 ) ) ;
#177 = PERSON ( 'UNSPECIFIED', 'UNSPECIFIED', 'UNSPECIFIED', ('UNSPECIFIED'), ('UNSPECIFIED'), ('UNSPECIFIED') ) ;
#178 = AXIS2_PLACEMENT_3D ( 'NONE', #62, #164, #183 ) ;
#179 = CARTESIAN_POINT ( 'NONE',  ( 0.0000000000000000000, 0.0000000000000000000, 0.0000000000000000000 ) ) ;
#180 = APPROVAL_ROLE ( '' ) ;
#181 = CARTESIAN_POINT ( 'NONE',  ( -4.350658496200205028E-31, 1.526005578858457550E-32, -1.246078118132446077E-16 ) ) ;
#182 = ADVANCED_FACE ( 'NONE', ( #17, #198 ), #106, .T. ) ;
#183 = DIRECTION ( 'NONE',  ( 4.275831445896958607E-31, 1.000000000000000000, 1.224646799147353207E-16 ) ) ;
#184 = DIRECTION ( 'NONE',  ( -4.275831445896958607E-31, -1.000000000000000000, -1.224646799147353207E-16 ) ) ;
#185 = DIRECTION ( 'NONE',  ( 0.0000000000000000000, 1.000000000000000000, 0.0000000000000000000 ) ) ;
#186 = VERTEX_POINT ( 'NONE', #66 ) ;
#187 = PERSON_AND_ORGANIZATION ( #177, #136 ) ;
#188 = DATE_AND_TIME ( #108, #206 ) ;
#189 = EDGE_CURVE ( 'NONE', #166, #166, #218, .T. ) ;
#190 = EDGE_LOOP ( 'NONE', ( #32 ) ) ;
#191 = AXIS2_PLACEMENT_3D ( 'NONE', #56, #37, #217 ) ;
#192 = APPROVAL_PERSON_ORGANIZATION ( #214, #88, #211 ) ;
#193 = FACE_OUTER_BOUND ( 'NONE', #154, .T. ) ;
#194 = PRODUCT_DEFINITION ( 'UNKNOWN', '', #175, #239 ) ;
#195 = COORDINATED_UNIVERSAL_TIME_OFFSET ( 1, 0, .AHEAD. ) ;
#196 = FACE_OUTER_BOUND ( 'NONE', #190, .T. ) ;
#197 = SHAPE_DEFINITION_REPRESENTATION ( #242, #130 ) ;
#198 = FACE_BOUND ( 'NONE', #72, .T. ) ;
#199 = CARTESIAN_POINT ( 'NONE',  ( 1.396592535537252159E-15, -4.898587196589408145E-17, 0.3999999999999996336 ) ) ;
#200 = DATE_AND_TIME ( #42, #27 ) ;
#201 = DIRECTION ( 'NONE',  ( -4.275831445896958607E-31, -1.000000000000000000, -1.224646799147353207E-16 ) ) ;
#202 = UNCERTAINTY_MEASURE_WITH_UNIT (LENGTH_MEASURE( 1.000000000000000082E-05 ), #126, 'distance_accuracy_value', 'NONE');
#203 = LOCAL_TIME ( 13, 56, 50.00000000000000000, #76 ) ;
#204 = PRODUCT_RELATED_PRODUCT_CATEGORY ( 'detail', '', ( #142 ) ) ;
#205 = EDGE_CURVE ( 'NONE', #223, #223, #149, .T. ) ;
#206 = LOCAL_TIME ( 13, 56, 50.00000000000000000, #128 ) ;
#207 = ORIENTED_EDGE ( 'NONE', *, *, #14, .T. ) ;
#208 = AXIS2_PLACEMENT_3D ( 'NONE', #135, #57, #25 ) ;
#209 = EDGE_LOOP ( 'NONE', ( #228 ) ) ;
#210 = DIRECTION ( 'NONE',  ( 0.0000000000000000000, 1.000000000000000000, 0.0000000000000000000 ) ) ;
#211 = APPROVAL_ROLE ( '' ) ;
#212 = CIRCLE ( 'NONE', #124, 2.435000000000024922 ) ;
#213 = CYLINDRICAL_SURFACE ( 'NONE', #71, 1.999999999999996669 ) ;
#214 = PERSON_AND_ORGANIZATION ( #177, #136 ) ;
#215 = FACE_OUTER_BOUND ( 'NONE', #151, .T. ) ;
#216 = FACE_OUTER_BOUND ( 'NONE', #176, .T. ) ;
#217 = DIRECTION ( 'NONE',  ( -4.275831445896958607E-31, -1.000000000000000000, -1.224646799147353207E-16 ) ) ;
#218 = CIRCLE ( 'NONE', #87, 2.435000000000024922 ) ;
#219 = CARTESIAN_POINT ( 'NONE',  ( 0.0000000000000000000, 2.035000000000023235, 0.0000000000000000000 ) ) ;
#220 = VERTEX_POINT ( 'NONE', #238 ) ;
#221 = APPROVAL_ROLE ( '' ) ;
#222 = APPROVAL_PERSON_ORGANIZATION ( #241, #131, #221 ) ;
#223 = VERTEX_POINT ( 'NONE', #9 ) ;
#224 = EDGE_LOOP ( 'NONE', ( #152 ) ) ;
#225 = MANIFOLD_SOLID_BREP ( 'Corps-Déplacer/Copier1[2]', #129 ) ;
#226 = AXIS2_PLACEMENT_3D ( 'NONE', #63, #7, #99 ) ;
#227 = ORIENTED_EDGE ( 'NONE', *, *, #18, .T. ) ;
#228 = ORIENTED_EDGE ( 'NONE', *, *, #205, .T. ) ;
#229 = DIRECTION ( 'NONE',  ( -3.491481338843133355E-15, 1.224646799147353207E-16, -1.000000000000000000 ) ) ;
#230 = COORDINATED_UNIVERSAL_TIME_OFFSET ( 1, 0, .AHEAD. ) ;
#231 = DIRECTION ( 'NONE',  ( 4.275831445896958607E-31, 1.000000000000000000, 1.224646799147353207E-16 ) ) ;
#232 = DATE_AND_TIME ( #234, #203 ) ;
#233 = DIRECTION ( 'NONE',  ( 3.954681610651367717E-31, 1.000000000000000000, 1.335772697107384043E-16 ) ) ;
#234 = CALENDAR_DATE ( 2021, 2, 12 ) ;
#235 = FACE_BOUND ( 'NONE', #224, .T. ) ;
#236 = DIRECTION ( 'NONE',  ( 3.491481338843133355E-15, -1.224646799147353207E-16, 1.000000000000000000 ) ) ;
#237 = APPROVAL_STATUS ( 'not_yet_approved' ) ;
#238 = CARTESIAN_POINT ( 'NONE',  ( 2.779219145719134403E-13, 1.999999999999991340, 79.60000000000000853 ) ) ;
#239 = DESIGN_CONTEXT ( 'detailed design', #119, 'design' ) ;
#240 = AXIS2_PLACEMENT_3D ( 'NONE', #181, #229, #231 ) ;
#241 = PERSON_AND_ORGANIZATION ( #177, #136 ) ;
#242 = PRODUCT_DEFINITION_SHAPE ( 'NONE', 'NONE',  #194 ) ;
#243 = AXIS2_PLACEMENT_3D ( 'NONE', #96, #139, #158 ) ;
ENDSEC;
END-ISO-10303-21;
