ISO-10303-21;
HEADER;
FILE_DESCRIPTION (( 'STEP AP203' ),
    '1' );
FILE_NAME ('321712.step',
    '2021-12-02T12:56:49',
    ( '' ),
    ( '' ),
    'SwSTEP 2.0',
    'SolidWorks 2019',
    '' );
FILE_SCHEMA (( 'CONFIG_CONTROL_DESIGN' ));
ENDSEC;

DATA;
#1 = PRODUCT_DEFINITION_FORMATION_WITH_SPECIFIED_SOURCE ( 'ANY', '', #242, .NOT_KNOWN. ) ;
#2 = COORDINATED_UNIVERSAL_TIME_OFFSET ( 1, 0, .AHEAD. ) ;
#3 = CARTESIAN_POINT ( 'NONE',  ( 1.396592535537253342E-15, 2.430000000000025029, 0.3999999999999999667 ) ) ;
#4 = EDGE_CURVE ( 'NONE', #204, #204, #230, .T. ) ;
#5 = PERSON_AND_ORGANIZATION ( #62, #192 ) ;
#6 = APPROVAL_PERSON_ORGANIZATION ( #212, #170, #107 ) ;
#7 = ORIENTED_EDGE ( 'NONE', *, *, #94, .T. ) ;
#8 = EDGE_LOOP ( 'NONE', ( #44 ) ) ;
#9 = CLOSED_SHELL ( 'NONE', ( #51, #236, #122, #86, #61 ) ) ;
#10 = CIRCLE ( 'NONE', #234, 2.000000000000000888 ) ;
#11 = ORIENTED_EDGE ( 'NONE', *, *, #36, .T. ) ;
#12 = ORIENTED_EDGE ( 'NONE', *, *, #83, .F. ) ;
#13 = CARTESIAN_POINT ( 'NONE',  ( 4.189777606611760026E-14, 1.822208135934173853E-32, 12.00000000000000000 ) ) ;
#14 = PLANE ( 'NONE',  #206 ) ;
#15 = AXIS2_PLACEMENT_3D ( 'NONE', #32, #128, #88 ) ;
#16 = DIRECTION ( 'NONE',  ( 0.0000000000000000000, 1.000000000000000000, 0.0000000000000000000 ) ) ;
#17 = DIRECTION ( 'NONE',  ( 4.275831445896958607E-31, 1.000000000000000000, 1.224646799147353207E-16 ) ) ;
#18 = DIRECTION ( 'NONE',  ( 3.491481338843133355E-15, -1.224646799147353207E-16, 1.000000000000000000 ) ) ;
#19 = MECHANICAL_CONTEXT ( 'NONE', #214, 'mechanical' ) ;
#20 = ADVANCED_FACE ( 'NONE', ( #219, #166 ), #176, .T. ) ;
#21 = CALENDAR_DATE ( 2021, 2, 12 ) ;
#22 = APPLICATION_PROTOCOL_DEFINITION ( 'international standard', 'config_control_design', 1994, #214 ) ;
#23 = SECURITY_CLASSIFICATION ( '', '', #143 ) ;
#24 = APPROVAL_DATE_TIME ( #78, #110 ) ;
#25 = DIRECTION ( 'NONE',  ( 1.000000000000000000, 0.0000000000000000000, 0.0000000000000000000 ) ) ;
#26 = CC_DESIGN_APPROVAL ( #47, ( #1 ) ) ;
#27 = EDGE_LOOP ( 'NONE', ( #12 ) ) ;
#28 = CYLINDRICAL_SURFACE ( 'NONE', #173, 1.999999999999996669 ) ;
#29 = DIRECTION ( 'NONE',  ( 0.0000000000000000000, 1.000000000000000000, 0.0000000000000000000 ) ) ;
#30 = CC_DESIGN_DATE_AND_TIME_ASSIGNMENT ( #155, #135, ( #37 ) ) ;
#31 = DIRECTION ( 'NONE',  ( -4.275831445896958607E-31, -1.000000000000000000, -1.224646799147353207E-16 ) ) ;
#32 = CARTESIAN_POINT ( 'NONE',  ( 4.449816798731640545E-14, -1.560785629507172623E-15, 12.74478184725467322 ) ) ;
#33 = CARTESIAN_POINT ( 'NONE',  ( 4.189777606611760026E-14, -1.469576158976823947E-15, 12.00000000000000000 ) ) ;
#34 = PERSON_AND_ORGANIZATION ( #62, #192 ) ;
#35 = CARTESIAN_POINT ( 'NONE',  ( 0.0000000000000000000, 2.030000000000023341, 0.0000000000000000000 ) ) ;
#36 = EDGE_CURVE ( 'NONE', #225, #225, #38, .T. ) ;
#37 = PRODUCT_DEFINITION ( 'UNKNOWN', '', #1, #162 ) ;
#38 = CIRCLE ( 'NONE', #67, 2.030000000000023341 ) ;
#39 = CIRCLE ( 'NONE', #97, 2.430000000000025029 ) ;
#40 = ORIENTED_EDGE ( 'NONE', *, *, #4, .F. ) ;
#41 = COORDINATED_UNIVERSAL_TIME_OFFSET ( 1, 0, .AHEAD. ) ;
#42 = ORIENTED_EDGE ( 'NONE', *, *, #36, .F. ) ;
#43 = LOCAL_TIME ( 13, 56, 49.00000000000000000, #41 ) ;
#44 = ORIENTED_EDGE ( 'NONE', *, *, #94, .F. ) ;
#45 = CALENDAR_DATE ( 2021, 2, 12 ) ;
#46 = CARTESIAN_POINT ( 'NONE',  ( 2.793185071074506684E-13, -9.797174393178826052E-15, 80.00000000000000000 ) ) ;
#47 = APPROVAL ( #81, 'UNSPECIFIED' ) ;
#48 = DATE_AND_TIME ( #177, #144 ) ;
#49 = ORIENTED_EDGE ( 'NONE', *, *, #83, .T. ) ;
#50 = DIRECTION ( 'NONE',  ( 3.491481338843133355E-15, -1.224646799147353207E-16, 1.000000000000000000 ) ) ;
#51 = ADVANCED_FACE ( 'NONE', ( #218 ), #56, .F. ) ;
#52 = FACE_OUTER_BOUND ( 'NONE', #8, .T. ) ;
#53 = DIRECTION ( 'NONE',  ( -3.491481338843133355E-15, 1.224646799147353207E-16, -1.000000000000000000 ) ) ;
#54 = CARTESIAN_POINT ( 'NONE',  ( -8.679937835170927093E-31, 3.044512358803606852E-32, -2.486033002269156265E-16 ) ) ;
#55 = CIRCLE ( 'NONE', #207, 2.430000000000025029 ) ;
#56 = PLANE ( 'NONE',  #140 ) ;
#57 = PERSON_AND_ORGANIZATION_ROLE ( 'design_owner' ) ;
#58 = CALENDAR_DATE ( 2021, 2, 12 ) ;
#59 = APPROVAL_PERSON_ORGANIZATION ( #34, #110, #137 ) ;
#60 = VERTEX_POINT ( 'NONE', #3 ) ;
#61 = ADVANCED_FACE ( 'NONE', ( #111 ), #14, .F. ) ;
#62 = PERSON ( 'UNSPECIFIED', 'UNSPECIFIED', 'UNSPECIFIED', ('UNSPECIFIED'), ('UNSPECIFIED'), ('UNSPECIFIED') ) ;
#63 = ADVANCED_FACE ( 'NONE', ( #92 ), #220, .T. ) ;
#64 = AXIS2_PLACEMENT_3D ( 'NONE', #228, #174, #191 ) ;
#65 = EDGE_LOOP ( 'NONE', ( #11 ) ) ;
#66 = PERSON_AND_ORGANIZATION_ROLE ( 'creator' ) ;
#67 = AXIS2_PLACEMENT_3D ( 'NONE', #54, #53, #114 ) ;
#68 = AXIS2_PLACEMENT_3D ( 'NONE', #199, #89, #72 ) ;
#69 = CC_DESIGN_DATE_AND_TIME_ASSIGNMENT ( #48, #142, ( #23 ) ) ;
#70 = DIRECTION ( 'NONE',  ( -3.491481338843133355E-15, 1.224646799147353207E-16, -1.000000000000000000 ) ) ;
#71 = DIRECTION ( 'NONE',  ( -3.491481338843133355E-15, 1.224646799147353207E-16, -1.000000000000000000 ) ) ;
#72 = DIRECTION ( 'NONE',  ( 0.0000000000000000000, 1.000000000000000000, 0.0000000000000000000 ) ) ;
#73 = DIRECTION ( 'NONE',  ( 3.962818815611555671E-31, 1.000000000000000000, 1.115434333832812026E-16 ) ) ;
#74 = APPROVAL_PERSON_ORGANIZATION ( #208, #47, #118 ) ;
#75 = DIRECTION ( 'NONE',  ( -3.491481338843133355E-15, 1.224646799147353207E-16, -1.000000000000000000 ) ) ;
#76 = ADVANCED_FACE ( 'NONE', ( #131, #198 ), #91, .T. ) ;
#77 =( LENGTH_UNIT ( ) NAMED_UNIT ( * ) SI_UNIT ( .MILLI., .METRE. ) );
#78 = DATE_AND_TIME ( #188, #112 ) ;
#79 = CC_DESIGN_PERSON_AND_ORGANIZATION_ASSIGNMENT ( #5, #57, ( #242 ) ) ;
#80 = AXIS2_PLACEMENT_3D ( 'NONE', #203, #169, #113 ) ;
#81 = APPROVAL_STATUS ( 'not_yet_approved' ) ;
#82 = PERSON_AND_ORGANIZATION ( #62, #192 ) ;
#83 = EDGE_CURVE ( 'NONE', #211, #211, #55, .T. ) ;
#84 = APPLICATION_CONTEXT ( 'configuration controlled 3d designs of mechanical parts and assemblies' ) ;
#85 = ORIENTED_EDGE ( 'NONE', *, *, #232, .T. ) ;
#86 = ADVANCED_FACE ( 'NONE', ( #52, #127 ), #222, .T. ) ;
#87 = ORIENTED_EDGE ( 'NONE', *, *, #205, .T. ) ;
#88 = DIRECTION ( 'NONE',  ( 0.0000000000000000000, 1.000000000000000000, 0.0000000000000000000 ) ) ;
#89 = DIRECTION ( 'NONE',  ( -3.491481338843133355E-15, 1.224646799147353207E-16, -1.000000000000000000 ) ) ;
#90 = FACE_OUTER_BOUND ( 'NONE', #27, .T. ) ;
#91 = CYLINDRICAL_SURFACE ( 'NONE', #80, 2.430000000000025029 ) ;
#92 = FACE_OUTER_BOUND ( 'NONE', #180, .T. ) ;
#93 =( NAMED_UNIT ( * ) SI_UNIT ( $, .STERADIAN. ) SOLID_ANGLE_UNIT ( ) );
#94 = EDGE_CURVE ( 'NONE', #171, #171, #10, .T. ) ;
#95 = DATE_AND_TIME ( #21, #210 ) ;
#96 = COORDINATED_UNIVERSAL_TIME_OFFSET ( 1, 0, .AHEAD. ) ;
#97 = AXIS2_PLACEMENT_3D ( 'NONE', #200, #185, #16 ) ;
#98 =( NAMED_UNIT ( * ) PLANE_ANGLE_UNIT ( ) SI_UNIT ( $, .RADIAN. ) );
#99 = SHAPE_DEFINITION_REPRESENTATION ( #158, #201 ) ;
#100 = AXIS2_PLACEMENT_3D ( 'NONE', #13, #126, #151 ) ;
#101 = CIRCLE ( 'NONE', #227, 2.430000000000025029 ) ;
#102 = APPROVAL_STATUS ( 'not_yet_approved' ) ;
#103 = PERSON_AND_ORGANIZATION ( #62, #192 ) ;
#104 = ORIENTED_EDGE ( 'NONE', *, *, #129, .F. ) ;
#105 = PERSON_AND_ORGANIZATION ( #62, #192 ) ;
#106 = CC_DESIGN_SECURITY_CLASSIFICATION ( #23, ( #1 ) ) ;
#107 = APPROVAL_ROLE ( '' ) ;
#108 = EDGE_LOOP ( 'NONE', ( #87 ) ) ;
#109 = DIRECTION ( 'NONE',  ( -3.491481338843133355E-15, 1.224646799147353207E-16, -1.000000000000000000 ) ) ;
#110 = APPROVAL ( #117, 'UNSPECIFIED' ) ;
#111 = FACE_OUTER_BOUND ( 'NONE', #121, .T. ) ;
#112 = LOCAL_TIME ( 13, 56, 49.00000000000000000, #96 ) ;
#113 = DIRECTION ( 'NONE',  ( 4.275831445896958607E-31, 1.000000000000000000, 1.224646799147353207E-16 ) ) ;
#114 = DIRECTION ( 'NONE',  ( 4.275831445896959482E-31, 1.000000000000000000, 1.224646799147353454E-16 ) ) ;
#115 = CARTESIAN_POINT ( 'NONE',  ( 2.793185071074506684E-13, 1.199807826129472128E-32, 80.00000000000000000 ) ) ;
#116 = CC_DESIGN_APPROVAL ( #110, ( #37 ) ) ;
#117 = APPROVAL_STATUS ( 'not_yet_approved' ) ;
#118 = APPROVAL_ROLE ( '' ) ;
#119 = VERTEX_POINT ( 'NONE', #175 ) ;
#120 = MANIFOLD_SOLID_BREP ( 'Corps-Déplacer/Copier1[2]', #183 ) ;
#121 = EDGE_LOOP ( 'NONE', ( #40 ) ) ;
#122 = ADVANCED_FACE ( 'NONE', ( #221, #237 ), #28, .T. ) ;
#123 = CIRCLE ( 'NONE', #15, 1.999999999999992228 ) ;
#124 = EDGE_LOOP ( 'NONE', ( #42 ) ) ;
#125 = PERSON_AND_ORGANIZATION_ROLE ( 'classification_officer' ) ;
#126 = DIRECTION ( 'NONE',  ( 3.491481338843133355E-15, -1.224646799147353207E-16, 1.000000000000000000 ) ) ;
#127 = FACE_BOUND ( 'NONE', #193, .T. ) ;
#128 = DIRECTION ( 'NONE',  ( -3.491481338843133355E-15, 1.224646799147353207E-16, -1.000000000000000000 ) ) ;
#129 = EDGE_CURVE ( 'NONE', #60, #60, #101, .T. ) ;
#130 = LOCAL_TIME ( 13, 56, 49.00000000000000000, #2 ) ;
#131 = FACE_OUTER_BOUND ( 'NONE', #163, .T. ) ;
#132 = CARTESIAN_POINT ( 'NONE',  ( -4.339968917585463546E-31, 1.522256179401803426E-32, -1.243016501134578132E-16 ) ) ;
#133 = APPLICATION_PROTOCOL_DEFINITION ( 'international standard', 'config_control_design', 1994, #84 ) ;
#134 = CONICAL_SURFACE ( 'NONE', #64, 2.430000000000025029, 0.5235987755982995928 ) ;
#135 = DATE_TIME_ROLE ( 'creation_date' ) ;
#136 = CARTESIAN_POINT ( 'NONE',  ( 2.793185071074506684E-13, 1.599999999999991207, 80.00000000000000000 ) ) ;
#137 = APPROVAL_ROLE ( '' ) ;
#138 = CC_DESIGN_PERSON_AND_ORGANIZATION_ASSIGNMENT ( #103, #66, ( #1 ) ) ;
#139 = DIRECTION ( 'NONE',  ( 0.0000000000000000000, 0.0000000000000000000, 1.000000000000000000 ) ) ;
#140 = AXIS2_PLACEMENT_3D ( 'NONE', #233, #50, #31 ) ;
#141 = COORDINATED_UNIVERSAL_TIME_OFFSET ( 1, 0, .AHEAD. ) ;
#142 = DATE_TIME_ROLE ( 'classification_date' ) ;
#143 = SECURITY_CLASSIFICATION_LEVEL ( 'unclassified' ) ;
#144 = LOCAL_TIME ( 13, 56, 49.00000000000000000, #141 ) ;
#145 = DATE_AND_TIME ( #45, #43 ) ;
#146 = EDGE_LOOP ( 'NONE', ( #104 ) ) ;
#147 = CC_DESIGN_PERSON_AND_ORGANIZATION_ASSIGNMENT ( #82, #226, ( #37 ) ) ;
#148 = ORIENTED_EDGE ( 'NONE', *, *, #4, .T. ) ;
#149 = DIRECTION ( 'NONE',  ( -4.275831445896959482E-31, -1.000000000000000000, -1.224646799147353454E-16 ) ) ;
#150 = DIRECTION ( 'NONE',  ( 4.275831445896958607E-31, 1.000000000000000000, 1.224646799147353207E-16 ) ) ;
#151 = DIRECTION ( 'NONE',  ( -4.275831445896958607E-31, -1.000000000000000000, -1.224646799147353207E-16 ) ) ;
#152 = AXIS2_PLACEMENT_3D ( 'NONE', #46, #164, #167 ) ;
#153 = PLANE ( 'NONE',  #184 ) ;
#154 = CARTESIAN_POINT ( 'NONE',  ( 4.189777606611760026E-14, 2.430000000000023697, 12.00000000000000000 ) ) ;
#155 = DATE_AND_TIME ( #58, #130 ) ;
#156 = APPROVAL_DATE_TIME ( #95, #47 ) ;
#157 = PRODUCT_RELATED_PRODUCT_CATEGORY ( 'detail', '', ( #242 ) ) ;
#158 = PRODUCT_DEFINITION_SHAPE ( 'NONE', 'NONE',  #37 ) ;
#159 = EDGE_LOOP ( 'NONE', ( #49 ) ) ;
#160 = EDGE_LOOP ( 'NONE', ( #216 ) ) ;
#161 = CC_DESIGN_APPROVAL ( #170, ( #23 ) ) ;
#162 = DESIGN_CONTEXT ( 'detailed design', #84, 'design' ) ;
#163 = EDGE_LOOP ( 'NONE', ( #85 ) ) ;
#164 = DIRECTION ( 'NONE',  ( -3.491481338843133355E-15, 1.224646799147353207E-16, -1.000000000000000000 ) ) ;
#165 = CC_DESIGN_PERSON_AND_ORGANIZATION_ASSIGNMENT ( #105, #125, ( #23 ) ) ;
#166 = FACE_BOUND ( 'NONE', #124, .T. ) ;
#167 = DIRECTION ( 'NONE',  ( 0.0000000000000000000, 1.000000000000000000, 0.0000000000000000000 ) ) ;
#168 = CARTESIAN_POINT ( 'NONE',  ( 2.779219145719134403E-13, -9.748188521212932624E-15, 79.60000000000000853 ) ) ;
#169 = DIRECTION ( 'NONE',  ( -3.491481338843133355E-15, 1.224646799147353207E-16, -1.000000000000000000 ) ) ;
#170 = APPROVAL ( #102, 'UNSPECIFIED' ) ;
#171 = VERTEX_POINT ( 'NONE', #241 ) ;
#172 = CARTESIAN_POINT ( 'NONE',  ( 4.449816798731640545E-14, 1.999999999999990452, 12.74478184725467322 ) ) ;
#173 = AXIS2_PLACEMENT_3D ( 'NONE', #182, #235, #186 ) ;
#174 = DIRECTION ( 'NONE',  ( -3.491481338843133355E-15, 1.224646799147353207E-16, -1.000000000000000000 ) ) ;
#175 = CARTESIAN_POINT ( 'NONE',  ( 4.189777606611760026E-14, 2.430000000000023697, 12.00000000000000000 ) ) ;
#176 = CONICAL_SURFACE ( 'NONE', #239, 2.030000000000023341, 0.7853981633974501664 ) ;
#177 = CALENDAR_DATE ( 2021, 2, 12 ) ;
#178 =( GEOMETRIC_REPRESENTATION_CONTEXT ( 3 ) GLOBAL_UNCERTAINTY_ASSIGNED_CONTEXT ( ( #196 ) ) GLOBAL_UNIT_ASSIGNED_CONTEXT ( ( #77, #98, #93 ) ) REPRESENTATION_CONTEXT ( 'NONE', 'WORKASPACE' ) );
#179 = PERSON_AND_ORGANIZATION ( #62, #192 ) ;
#180 = EDGE_LOOP ( 'NONE', ( #197 ) ) ;
#181 = FACE_BOUND ( 'NONE', #108, .T. ) ;
#182 = CARTESIAN_POINT ( 'NONE',  ( 0.0000000000000000000, 0.0000000000000000000, 0.0000000000000000000 ) ) ;
#183 = CLOSED_SHELL ( 'NONE', ( #76, #63, #190, #20 ) ) ;
#184 = AXIS2_PLACEMENT_3D ( 'NONE', #132, #109, #150 ) ;
#185 = DIRECTION ( 'NONE',  ( -3.491481338843133355E-15, 1.224646799147353207E-16, -1.000000000000000000 ) ) ;
#186 = DIRECTION ( 'NONE',  ( 4.275831445896958607E-31, 1.000000000000000000, 1.224646799147353207E-16 ) ) ;
#187 = DIRECTION ( 'NONE',  ( -3.491481338843133355E-15, 1.224646799147353207E-16, -1.000000000000000000 ) ) ;
#188 = CALENDAR_DATE ( 2021, 2, 12 ) ;
#189 = COORDINATED_UNIVERSAL_TIME_OFFSET ( 1, 0, .AHEAD. ) ;
#190 = ADVANCED_FACE ( 'NONE', ( #202 ), #153, .T. ) ;
#191 = DIRECTION ( 'NONE',  ( 0.0000000000000000000, 1.000000000000000000, 0.0000000000000000000 ) ) ;
#192 = ORGANIZATION ( 'UNSPECIFIED', 'UNSPECIFIED', '' ) ;
#193 = EDGE_LOOP ( 'NONE', ( #148 ) ) ;
#194 = EDGE_LOOP ( 'NONE', ( #231 ) ) ;
#195 = APPROVAL_DATE_TIME ( #145, #170 ) ;
#196 = UNCERTAINTY_MEASURE_WITH_UNIT (LENGTH_MEASURE( 1.000000000000000082E-05 ), #77, 'distance_accuracy_value', 'NONE');
#197 = ORIENTED_EDGE ( 'NONE', *, *, #232, .F. ) ;
#198 = FACE_OUTER_BOUND ( 'NONE', #146, .T. ) ;
#199 = CARTESIAN_POINT ( 'NONE',  ( 2.793185071074506684E-13, -9.797174393178826052E-15, 80.00000000000000000 ) ) ;
#200 = CARTESIAN_POINT ( 'NONE',  ( 4.189777606611760026E-14, -1.469576158976823947E-15, 12.00000000000000000 ) ) ;
#201 = ADVANCED_BREP_SHAPE_REPRESENTATION ( '321712', ( #213, #120, #215 ), #178 ) ;
#202 = FACE_OUTER_BOUND ( 'NONE', #65, .T. ) ;
#203 = CARTESIAN_POINT ( 'NONE',  ( 0.0000000000000000000, 0.0000000000000000000, 0.0000000000000000000 ) ) ;
#204 = VERTEX_POINT ( 'NONE', #136 ) ;
#205 = EDGE_CURVE ( 'NONE', #209, #209, #123, .T. ) ;
#206 = AXIS2_PLACEMENT_3D ( 'NONE', #115, #187, #17 ) ;
#207 = AXIS2_PLACEMENT_3D ( 'NONE', #33, #70, #240 ) ;
#208 = PERSON_AND_ORGANIZATION ( #62, #192 ) ;
#209 = VERTEX_POINT ( 'NONE', #172 ) ;
#210 = LOCAL_TIME ( 13, 56, 49.00000000000000000, #189 ) ;
#211 = VERTEX_POINT ( 'NONE', #154 ) ;
#212 = PERSON_AND_ORGANIZATION ( #62, #192 ) ;
#213 = MANIFOLD_SOLID_BREP ( 'Corps-Déplacer/Copier1[1]', #9 ) ;
#214 = APPLICATION_CONTEXT ( 'configuration controlled 3d designs of mechanical parts and assemblies' ) ;
#215 = AXIS2_PLACEMENT_3D ( 'NONE', #243, #139, #25 ) ;
#216 = ORIENTED_EDGE ( 'NONE', *, *, #129, .T. ) ;
#217 = PERSON_AND_ORGANIZATION_ROLE ( 'design_supplier' ) ;
#218 = FACE_OUTER_BOUND ( 'NONE', #159, .T. ) ;
#219 = FACE_OUTER_BOUND ( 'NONE', #160, .T. ) ;
#220 = PLANE ( 'NONE',  #100 ) ;
#221 = FACE_OUTER_BOUND ( 'NONE', #194, .T. ) ;
#222 = CONICAL_SURFACE ( 'NONE', #68, 1.600000000000000977, 0.7853981633974512766 ) ;
#223 = CC_DESIGN_PERSON_AND_ORGANIZATION_ASSIGNMENT ( #179, #217, ( #1 ) ) ;
#224 = CARTESIAN_POINT ( 'NONE',  ( -8.679937835170927093E-31, 3.044512358803606852E-32, -2.486033002269156265E-16 ) ) ;
#225 = VERTEX_POINT ( 'NONE', #35 ) ;
#226 = PERSON_AND_ORGANIZATION_ROLE ( 'creator' ) ;
#227 = AXIS2_PLACEMENT_3D ( 'NONE', #238, #71, #73 ) ;
#228 = CARTESIAN_POINT ( 'NONE',  ( 4.189777606611760026E-14, -1.469576158976823947E-15, 12.00000000000000000 ) ) ;
#229 = EDGE_LOOP ( 'NONE', ( #7 ) ) ;
#230 = CIRCLE ( 'NONE', #152, 1.600000000000000977 ) ;
#231 = ORIENTED_EDGE ( 'NONE', *, *, #205, .F. ) ;
#232 = EDGE_CURVE ( 'NONE', #119, #119, #39, .T. ) ;
#233 = CARTESIAN_POINT ( 'NONE',  ( 4.189777606611760026E-14, 1.822208135934173853E-32, 12.00000000000000000 ) ) ;
#234 = AXIS2_PLACEMENT_3D ( 'NONE', #168, #75, #29 ) ;
#235 = DIRECTION ( 'NONE',  ( -3.491481338843133355E-15, 1.224646799147353207E-16, -1.000000000000000000 ) ) ;
#236 = ADVANCED_FACE ( 'NONE', ( #181, #90 ), #134, .T. ) ;
#237 = FACE_OUTER_BOUND ( 'NONE', #229, .T. ) ;
#238 = CARTESIAN_POINT ( 'NONE',  ( 1.396592535537252356E-15, -4.898587196589408761E-17, 0.3999999999999996891 ) ) ;
#239 = AXIS2_PLACEMENT_3D ( 'NONE', #224, #18, #149 ) ;
#240 = DIRECTION ( 'NONE',  ( 0.0000000000000000000, 1.000000000000000000, 0.0000000000000000000 ) ) ;
#241 = CARTESIAN_POINT ( 'NONE',  ( 2.779219145719134403E-13, 1.999999999999991340, 79.60000000000000853 ) ) ;
#242 = PRODUCT ( '321712', '321712', '', ( #19 ) ) ;
#243 = CARTESIAN_POINT ( 'NONE',  ( 0.0000000000000000000, 0.0000000000000000000, 0.0000000000000000000 ) ) ;
ENDSEC;
END-ISO-10303-21;
