ISO-10303-21;
HEADER;
FILE_DESCRIPTION (( 'STEP AP203' ),
    '1' );
FILE_NAME ('321711.step',
    '2021-12-02T12:56:48',
    ( '' ),
    ( '' ),
    'SwSTEP 2.0',
    'SolidWorks 2019',
    '' );
FILE_SCHEMA (( 'CONFIG_CONTROL_DESIGN' ));
ENDSEC;

DATA;
#1 = DIRECTION ( 'NONE',  ( -3.491481338843133355E-15, 1.224646799147353207E-16, -1.000000000000000000 ) ) ;
#2 = CARTESIAN_POINT ( 'NONE',  ( 4.189777606611760026E-14, 1.818458736477519455E-32, 12.00000000000000000 ) ) ;
#3 = DIRECTION ( 'NONE',  ( -4.275831445896958607E-31, -1.000000000000000000, -1.224646799147353207E-16 ) ) ;
#4 = AXIS2_PLACEMENT_3D ( 'NONE', #163, #109, #89 ) ;
#5 = VERTEX_POINT ( 'NONE', #227 ) ;
#6 = VERTEX_POINT ( 'NONE', #101 ) ;
#7 = PERSON_AND_ORGANIZATION ( #114, #174 ) ;
#8 = CLOSED_SHELL ( 'NONE', ( #111, #139, #206, #216, #210 ) ) ;
#9 = CARTESIAN_POINT ( 'NONE',  ( -8.658558677941444130E-31, 3.037013559890296962E-32, -2.479909768273419389E-16 ) ) ;
#10 = PERSON_AND_ORGANIZATION ( #114, #174 ) ;
#11 = ORIENTED_EDGE ( 'NONE', *, *, #78, .T. ) ;
#12 = CONICAL_SURFACE ( 'NONE', #165, 2.425000000000025135, 0.5235987755983003700 ) ;
#13 = APPROVAL ( #188, 'UNSPECIFIED' ) ;
#14 = PERSON_AND_ORGANIZATION ( #114, #174 ) ;
#15 = CIRCLE ( 'NONE', #146, 1.999999999999992228 ) ;
#16 = DIRECTION ( 'NONE',  ( 0.0000000000000000000, 1.000000000000000000, 0.0000000000000000000 ) ) ;
#17 = CARTESIAN_POINT ( 'NONE',  ( 4.189777606611760026E-14, -1.469576158976823947E-15, 12.00000000000000000 ) ) ;
#18 = FACE_OUTER_BOUND ( 'NONE', #45, .T. ) ;
#19 = CARTESIAN_POINT ( 'NONE',  ( 1.396592535537252356E-15, -4.898587196589408761E-17, 0.3999999999999996891 ) ) ;
#20 = CARTESIAN_POINT ( 'NONE',  ( 2.779219145719134403E-13, -9.748188521212932624E-15, 79.60000000000000853 ) ) ;
#21 = CC_DESIGN_APPROVAL ( #13, ( #134 ) ) ;
#22 = CC_DESIGN_SECURITY_CLASSIFICATION ( #64, ( #170 ) ) ;
#23 = MECHANICAL_CONTEXT ( 'NONE', #195, 'mechanical' ) ;
#24 =( NAMED_UNIT ( * ) SI_UNIT ( $, .STERADIAN. ) SOLID_ANGLE_UNIT ( ) );
#25 = APPROVAL_STATUS ( 'not_yet_approved' ) ;
#26 = APPROVAL_ROLE ( '' ) ;
#27 = ORIENTED_EDGE ( 'NONE', *, *, #172, .T. ) ;
#28 = ORIENTED_EDGE ( 'NONE', *, *, #31, .T. ) ;
#29 = AXIS2_PLACEMENT_3D ( 'NONE', #2, #90, #54 ) ;
#30 = DIRECTION ( 'NONE',  ( 3.970989576056115578E-31, 1.000000000000000000, 1.117734198438652875E-16 ) ) ;
#31 = EDGE_CURVE ( 'NONE', #167, #167, #105, .T. ) ;
#32 = FACE_OUTER_BOUND ( 'NONE', #63, .T. ) ;
#33 = CARTESIAN_POINT ( 'NONE',  ( 0.0000000000000000000, 0.0000000000000000000, 0.0000000000000000000 ) ) ;
#34 = LOCAL_TIME ( 13, 56, 48.00000000000000000, #77 ) ;
#35 = CYLINDRICAL_SURFACE ( 'NONE', #228, 1.999999999999996669 ) ;
#36 = APPROVAL_DATE_TIME ( #166, #13 ) ;
#37 = CALENDAR_DATE ( 2021, 2, 12 ) ;
#38 = PERSON_AND_ORGANIZATION ( #114, #174 ) ;
#39 = ADVANCED_FACE ( 'NONE', ( #107, #110 ), #180, .T. ) ;
#40 = PERSON_AND_ORGANIZATION ( #114, #174 ) ;
#41 = CONICAL_SURFACE ( 'NONE', #243, 2.025000000000023892, 0.7853981633974501664 ) ;
#42 = ADVANCED_FACE ( 'NONE', ( #18 ), #95, .T. ) ;
#43 = COORDINATED_UNIVERSAL_TIME_OFFSET ( 1, 0, .AHEAD. ) ;
#44 = DATE_AND_TIME ( #120, #185 ) ;
#45 = EDGE_LOOP ( 'NONE', ( #86 ) ) ;
#46 =( GEOMETRIC_REPRESENTATION_CONTEXT ( 3 ) GLOBAL_UNCERTAINTY_ASSIGNED_CONTEXT ( ( #58 ) ) GLOBAL_UNIT_ASSIGNED_CONTEXT ( ( #203, #115, #24 ) ) REPRESENTATION_CONTEXT ( 'NONE', 'WORKASPACE' ) );
#47 = PERSON_AND_ORGANIZATION_ROLE ( 'creator' ) ;
#48 = EDGE_LOOP ( 'NONE', ( #239 ) ) ;
#49 = EDGE_LOOP ( 'NONE', ( #156 ) ) ;
#50 = DIRECTION ( 'NONE',  ( -3.491481338843133355E-15, 1.224646799147353207E-16, -1.000000000000000000 ) ) ;
#51 = EDGE_CURVE ( 'NONE', #148, #148, #87, .T. ) ;
#52 = DIRECTION ( 'NONE',  ( 0.0000000000000000000, 1.000000000000000000, 0.0000000000000000000 ) ) ;
#53 = FACE_OUTER_BOUND ( 'NONE', #121, .T. ) ;
#54 = DIRECTION ( 'NONE',  ( -4.275831445896958607E-31, -1.000000000000000000, -1.224646799147353207E-16 ) ) ;
#55 = DIRECTION ( 'NONE',  ( 4.275831445896958607E-31, 1.000000000000000000, 1.224646799147353207E-16 ) ) ;
#56 = APPROVAL ( #103, 'UNSPECIFIED' ) ;
#57 = DATE_AND_TIME ( #226, #34 ) ;
#58 = UNCERTAINTY_MEASURE_WITH_UNIT (LENGTH_MEASURE( 1.000000000000000082E-05 ), #203, 'distance_accuracy_value', 'NONE');
#59 = COORDINATED_UNIVERSAL_TIME_OFFSET ( 1, 0, .AHEAD. ) ;
#60 = CARTESIAN_POINT ( 'NONE',  ( 0.0000000000000000000, 0.0000000000000000000, 0.0000000000000000000 ) ) ;
#61 = AXIS2_PLACEMENT_3D ( 'NONE', #60, #132, #230 ) ;
#62 = PERSON_AND_ORGANIZATION ( #114, #174 ) ;
#63 = EDGE_LOOP ( 'NONE', ( #237 ) ) ;
#64 = SECURITY_CLASSIFICATION ( '', '', #157 ) ;
#65 = EDGE_LOOP ( 'NONE', ( #28 ) ) ;
#66 = PRODUCT_RELATED_PRODUCT_CATEGORY ( 'detail', '', ( #94 ) ) ;
#67 = PERSON_AND_ORGANIZATION_ROLE ( 'classification_officer' ) ;
#68 = EDGE_LOOP ( 'NONE', ( #11 ) ) ;
#69 = EDGE_CURVE ( 'NONE', #82, #82, #232, .T. ) ;
#70 = PLANE ( 'NONE',  #178 ) ;
#71 = FACE_BOUND ( 'NONE', #215, .T. ) ;
#72 = DIRECTION ( 'NONE',  ( 3.491481338843133355E-15, -1.224646799147353207E-16, 1.000000000000000000 ) ) ;
#73 = DIRECTION ( 'NONE',  ( 0.0000000000000000000, 1.000000000000000000, 0.0000000000000000000 ) ) ;
#74 = CARTESIAN_POINT ( 'NONE',  ( 4.189777606611760026E-14, -1.469576158976823947E-15, 12.00000000000000000 ) ) ;
#75 = LOCAL_TIME ( 13, 56, 48.00000000000000000, #59 ) ;
#76 = CC_DESIGN_PERSON_AND_ORGANIZATION_ASSIGNMENT ( #137, #122, ( #170 ) ) ;
#77 = COORDINATED_UNIVERSAL_TIME_OFFSET ( 1, 0, .AHEAD. ) ;
#78 = EDGE_CURVE ( 'NONE', #6, #6, #212, .T. ) ;
#79 = DIRECTION ( 'NONE',  ( -3.491481338843133355E-15, 1.224646799147353207E-16, -1.000000000000000000 ) ) ;
#80 = DATE_TIME_ROLE ( 'creation_date' ) ;
#81 = AXIS2_PLACEMENT_3D ( 'NONE', #147, #130, #199 ) ;
#82 = VERTEX_POINT ( 'NONE', #117 ) ;
#83 = ADVANCED_FACE ( 'NONE', ( #143, #71 ), #41, .T. ) ;
#84 = AXIS2_PLACEMENT_3D ( 'NONE', #176, #181, #16 ) ;
#85 = MANIFOLD_SOLID_BREP ( 'Corps-Déplacer/Copier1[2]', #190 ) ;
#86 = ORIENTED_EDGE ( 'NONE', *, *, #235, .T. ) ;
#87 = CIRCLE ( 'NONE', #223, 2.425000000000025135 ) ;
#88 = APPROVAL_DATE_TIME ( #124, #56 ) ;
#89 = DIRECTION ( 'NONE',  ( 4.275831445896958607E-31, 1.000000000000000000, 1.224646799147353207E-16 ) ) ;
#90 = DIRECTION ( 'NONE',  ( 3.491481338843133355E-15, -1.224646799147353207E-16, 1.000000000000000000 ) ) ;
#91 = AXIS2_PLACEMENT_3D ( 'NONE', #20, #224, #93 ) ;
#92 = MANIFOLD_SOLID_BREP ( 'Corps-Déplacer/Copier1[1]', #8 ) ;
#93 = DIRECTION ( 'NONE',  ( 0.0000000000000000000, 1.000000000000000000, 0.0000000000000000000 ) ) ;
#94 = PRODUCT ( '321711', '321711', '', ( #23 ) ) ;
#95 = PLANE ( 'NONE',  #4 ) ;
#96 = DIRECTION ( 'NONE',  ( 0.0000000000000000000, 1.000000000000000000, 0.0000000000000000000 ) ) ;
#97 = CONICAL_SURFACE ( 'NONE', #125, 1.600000000000000977, 0.7853981633974512766 ) ;
#98 = COORDINATED_UNIVERSAL_TIME_OFFSET ( 1, 0, .AHEAD. ) ;
#99 = DIRECTION ( 'NONE',  ( 4.275831445896958607E-31, 1.000000000000000000, 1.224646799147353207E-16 ) ) ;
#100 = LOCAL_TIME ( 13, 56, 48.00000000000000000, #208 ) ;
#101 = CARTESIAN_POINT ( 'NONE',  ( 2.779219145719134403E-13, 1.999999999999991340, 79.60000000000000853 ) ) ;
#102 = ORIENTED_EDGE ( 'NONE', *, *, #235, .F. ) ;
#103 = APPROVAL_STATUS ( 'not_yet_approved' ) ;
#104 = EDGE_LOOP ( 'NONE', ( #123 ) ) ;
#105 = CIRCLE ( 'NONE', #84, 2.425000000000025135 ) ;
#106 = FACE_OUTER_BOUND ( 'NONE', #49, .T. ) ;
#107 = FACE_OUTER_BOUND ( 'NONE', #65, .T. ) ;
#108 = DIRECTION ( 'NONE',  ( 0.0000000000000000000, 1.000000000000000000, 0.0000000000000000000 ) ) ;
#109 = DIRECTION ( 'NONE',  ( -3.491481338843133355E-15, 1.224646799147353207E-16, -1.000000000000000000 ) ) ;
#110 = FACE_OUTER_BOUND ( 'NONE', #213, .T. ) ;
#111 = ADVANCED_FACE ( 'NONE', ( #193 ), #240, .F. ) ;
#112 = VERTEX_POINT ( 'NONE', #171 ) ;
#113 = AXIS2_PLACEMENT_3D ( 'NONE', #9, #79, #99 ) ;
#114 = PERSON ( 'UNSPECIFIED', 'UNSPECIFIED', 'UNSPECIFIED', ('UNSPECIFIED'), ('UNSPECIFIED'), ('UNSPECIFIED') ) ;
#115 =( NAMED_UNIT ( * ) PLANE_ANGLE_UNIT ( ) SI_UNIT ( $, .RADIAN. ) );
#116 = APPLICATION_PROTOCOL_DEFINITION ( 'international standard', 'config_control_design', 1994, #211 ) ;
#117 = CARTESIAN_POINT ( 'NONE',  ( 4.189777606611760026E-14, 2.425000000000023803, 12.00000000000000000 ) ) ;
#118 = AXIS2_PLACEMENT_3D ( 'NONE', #17, #128, #96 ) ;
#119 = CC_DESIGN_PERSON_AND_ORGANIZATION_ASSIGNMENT ( #14, #47, ( #170 ) ) ;
#120 = CALENDAR_DATE ( 2021, 2, 12 ) ;
#121 = EDGE_LOOP ( 'NONE', ( #135 ) ) ;
#122 = PERSON_AND_ORGANIZATION_ROLE ( 'design_supplier' ) ;
#123 = ORIENTED_EDGE ( 'NONE', *, *, #69, .T. ) ;
#124 = DATE_AND_TIME ( #173, #100 ) ;
#125 = AXIS2_PLACEMENT_3D ( 'NONE', #218, #50, #126 ) ;
#126 = DIRECTION ( 'NONE',  ( 0.0000000000000000000, 1.000000000000000000, 0.0000000000000000000 ) ) ;
#127 = CARTESIAN_POINT ( 'NONE',  ( 2.793185071074506684E-13, -9.797174393178826052E-15, 80.00000000000000000 ) ) ;
#128 = DIRECTION ( 'NONE',  ( -3.491481338843133355E-15, 1.224646799147353207E-16, -1.000000000000000000 ) ) ;
#129 = PLANE ( 'NONE',  #81 ) ;
#130 = DIRECTION ( 'NONE',  ( -3.491481338843133355E-15, 1.224646799147353207E-16, -1.000000000000000000 ) ) ;
#131 = CIRCLE ( 'NONE', #160, 1.600000000000000977 ) ;
#132 = DIRECTION ( 'NONE',  ( 0.0000000000000000000, 0.0000000000000000000, 1.000000000000000000 ) ) ;
#133 = APPROVAL_ROLE ( '' ) ;
#134 = PRODUCT_DEFINITION ( 'UNKNOWN', '', #170, #233 ) ;
#135 = ORIENTED_EDGE ( 'NONE', *, *, #192, .F. ) ;
#136 = APPROVAL_PERSON_ORGANIZATION ( #40, #13, #133 ) ;
#137 = PERSON_AND_ORGANIZATION ( #114, #174 ) ;
#138 = ORIENTED_EDGE ( 'NONE', *, *, #51, .F. ) ;
#139 = ADVANCED_FACE ( 'NONE', ( #159, #32 ), #12, .T. ) ;
#140 = EDGE_LOOP ( 'NONE', ( #27 ) ) ;
#141 = CARTESIAN_POINT ( 'NONE',  ( 4.189777606611760026E-14, 1.818458736477519455E-32, 12.00000000000000000 ) ) ;
#142 = LOCAL_TIME ( 13, 56, 48.00000000000000000, #98 ) ;
#143 = FACE_OUTER_BOUND ( 'NONE', #48, .T. ) ;
#144 = DIRECTION ( 'NONE',  ( -4.275831445896958607E-31, -1.000000000000000000, -1.224646799147353207E-16 ) ) ;
#145 = DIRECTION ( 'NONE',  ( -3.491481338843133355E-15, 1.224646799147353207E-16, -1.000000000000000000 ) ) ;
#146 = AXIS2_PLACEMENT_3D ( 'NONE', #220, #242, #52 ) ;
#147 = CARTESIAN_POINT ( 'NONE',  ( 2.793185071074506684E-13, 1.199807826129472128E-32, 80.00000000000000000 ) ) ;
#148 = VERTEX_POINT ( 'NONE', #187 ) ;
#149 = CARTESIAN_POINT ( 'NONE',  ( 4.189777606611760026E-14, 2.425000000000023803, 12.00000000000000000 ) ) ;
#150 = CIRCLE ( 'NONE', #113, 2.025000000000023892 ) ;
#151 = APPLICATION_PROTOCOL_DEFINITION ( 'international standard', 'config_control_design', 1994, #195 ) ;
#152 = CC_DESIGN_PERSON_AND_ORGANIZATION_ASSIGNMENT ( #62, #67, ( #64 ) ) ;
#153 = CARTESIAN_POINT ( 'NONE',  ( 2.793185071074506684E-13, 1.599999999999991207, 80.00000000000000000 ) ) ;
#154 = APPROVAL_PERSON_ORGANIZATION ( #200, #202, #229 ) ;
#155 = EDGE_LOOP ( 'NONE', ( #236 ) ) ;
#156 = ORIENTED_EDGE ( 'NONE', *, *, #78, .F. ) ;
#157 = SECURITY_CLASSIFICATION_LEVEL ( 'unclassified' ) ;
#158 = DIRECTION ( 'NONE',  ( 4.275831445896958607E-31, 1.000000000000000000, 1.224646799147353207E-16 ) ) ;
#159 = FACE_BOUND ( 'NONE', #140, .T. ) ;
#160 = AXIS2_PLACEMENT_3D ( 'NONE', #127, #164, #108 ) ;
#161 = CC_DESIGN_DATE_AND_TIME_ASSIGNMENT ( #44, #238, ( #64 ) ) ;
#162 = FACE_OUTER_BOUND ( 'NONE', #155, .T. ) ;
#163 = CARTESIAN_POINT ( 'NONE',  ( -4.329279338970722065E-31, 1.518506779945148481E-32, -1.239954884136709695E-16 ) ) ;
#164 = DIRECTION ( 'NONE',  ( -3.491481338843133355E-15, 1.224646799147353207E-16, -1.000000000000000000 ) ) ;
#165 = AXIS2_PLACEMENT_3D ( 'NONE', #74, #145, #73 ) ;
#166 = DATE_AND_TIME ( #169, #142 ) ;
#167 = VERTEX_POINT ( 'NONE', #149 ) ;
#168 = VERTEX_POINT ( 'NONE', #153 ) ;
#169 = CALENDAR_DATE ( 2021, 2, 12 ) ;
#170 = PRODUCT_DEFINITION_FORMATION_WITH_SPECIFIED_SOURCE ( 'ANY', '', #94, .NOT_KNOWN. ) ;
#171 = CARTESIAN_POINT ( 'NONE',  ( 4.446793087195363040E-14, 1.999999999999990452, 12.73612159321682746 ) ) ;
#172 = EDGE_CURVE ( 'NONE', #112, #112, #15, .T. ) ;
#173 = CALENDAR_DATE ( 2021, 2, 12 ) ;
#174 = ORGANIZATION ( 'UNSPECIFIED', 'UNSPECIFIED', '' ) ;
#175 = EDGE_LOOP ( 'NONE', ( #217 ) ) ;
#176 = CARTESIAN_POINT ( 'NONE',  ( 4.189777606611760026E-14, -1.469576158976823947E-15, 12.00000000000000000 ) ) ;
#177 = AXIS2_PLACEMENT_3D ( 'NONE', #33, #183, #158 ) ;
#178 = AXIS2_PLACEMENT_3D ( 'NONE', #141, #72, #144 ) ;
#179 = FACE_BOUND ( 'NONE', #189, .T. ) ;
#180 = CYLINDRICAL_SURFACE ( 'NONE', #177, 2.425000000000025135 ) ;
#181 = DIRECTION ( 'NONE',  ( -3.491481338843133355E-15, 1.224646799147353207E-16, -1.000000000000000000 ) ) ;
#182 = DIRECTION ( 'NONE',  ( 3.491481338843133355E-15, -1.224646799147353207E-16, 1.000000000000000000 ) ) ;
#183 = DIRECTION ( 'NONE',  ( -3.491481338843133355E-15, 1.224646799147353207E-16, -1.000000000000000000 ) ) ;
#184 = PERSON_AND_ORGANIZATION_ROLE ( 'creator' ) ;
#185 = LOCAL_TIME ( 13, 56, 48.00000000000000000, #43 ) ;
#186 = DATE_AND_TIME ( #37, #75 ) ;
#187 = CARTESIAN_POINT ( 'NONE',  ( 1.396592535537253342E-15, 2.425000000000025135, 0.3999999999999999667 ) ) ;
#188 = APPROVAL_STATUS ( 'not_yet_approved' ) ;
#189 = EDGE_LOOP ( 'NONE', ( #209 ) ) ;
#190 = CLOSED_SHELL ( 'NONE', ( #39, #201, #42, #83 ) ) ;
#191 = CC_DESIGN_PERSON_AND_ORGANIZATION_ASSIGNMENT ( #7, #184, ( #134 ) ) ;
#192 = EDGE_CURVE ( 'NONE', #168, #168, #131, .T. ) ;
#193 = FACE_OUTER_BOUND ( 'NONE', #104, .T. ) ;
#194 = CARTESIAN_POINT ( 'NONE',  ( -8.658558677941444130E-31, 3.037013559890296962E-32, -2.479909768273419389E-16 ) ) ;
#195 = APPLICATION_CONTEXT ( 'configuration controlled 3d designs of mechanical parts and assemblies' ) ;
#196 = FACE_OUTER_BOUND ( 'NONE', #68, .T. ) ;
#197 = APPROVAL_PERSON_ORGANIZATION ( #10, #56, #26 ) ;
#198 = CARTESIAN_POINT ( 'NONE',  ( 0.0000000000000000000, 0.0000000000000000000, 0.0000000000000000000 ) ) ;
#199 = DIRECTION ( 'NONE',  ( 4.275831445896958607E-31, 1.000000000000000000, 1.224646799147353207E-16 ) ) ;
#200 = PERSON_AND_ORGANIZATION ( #114, #174 ) ;
#201 = ADVANCED_FACE ( 'NONE', ( #162 ), #70, .T. ) ;
#202 = APPROVAL ( #25, 'UNSPECIFIED' ) ;
#203 =( LENGTH_UNIT ( ) NAMED_UNIT ( * ) SI_UNIT ( .MILLI., .METRE. ) );
#204 = APPROVAL_DATE_TIME ( #186, #202 ) ;
#205 = CC_DESIGN_APPROVAL ( #202, ( #170 ) ) ;
#206 = ADVANCED_FACE ( 'NONE', ( #222, #196 ), #35, .T. ) ;
#207 = SHAPE_DEFINITION_REPRESENTATION ( #241, #234 ) ;
#208 = COORDINATED_UNIVERSAL_TIME_OFFSET ( 1, 0, .AHEAD. ) ;
#209 = ORIENTED_EDGE ( 'NONE', *, *, #192, .T. ) ;
#210 = ADVANCED_FACE ( 'NONE', ( #53 ), #129, .F. ) ;
#211 = APPLICATION_CONTEXT ( 'configuration controlled 3d designs of mechanical parts and assemblies' ) ;
#212 = CIRCLE ( 'NONE', #91, 2.000000000000000888 ) ;
#213 = EDGE_LOOP ( 'NONE', ( #138 ) ) ;
#214 = CC_DESIGN_DATE_AND_TIME_ASSIGNMENT ( #57, #80, ( #134 ) ) ;
#215 = EDGE_LOOP ( 'NONE', ( #102 ) ) ;
#216 = ADVANCED_FACE ( 'NONE', ( #106, #179 ), #97, .T. ) ;
#217 = ORIENTED_EDGE ( 'NONE', *, *, #172, .F. ) ;
#218 = CARTESIAN_POINT ( 'NONE',  ( 2.793185071074506684E-13, -9.797174393178826052E-15, 80.00000000000000000 ) ) ;
#219 = CC_DESIGN_APPROVAL ( #56, ( #64 ) ) ;
#220 = CARTESIAN_POINT ( 'NONE',  ( 4.446793087195363040E-14, -1.559725054268447579E-15, 12.73612159321682746 ) ) ;
#221 = DIRECTION ( 'NONE',  ( -3.491481338843133355E-15, 1.224646799147353207E-16, -1.000000000000000000 ) ) ;
#222 = FACE_OUTER_BOUND ( 'NONE', #175, .T. ) ;
#223 = AXIS2_PLACEMENT_3D ( 'NONE', #19, #1, #30 ) ;
#224 = DIRECTION ( 'NONE',  ( -3.491481338843133355E-15, 1.224646799147353207E-16, -1.000000000000000000 ) ) ;
#225 = CC_DESIGN_PERSON_AND_ORGANIZATION_ASSIGNMENT ( #38, #231, ( #94 ) ) ;
#226 = CALENDAR_DATE ( 2021, 2, 12 ) ;
#227 = CARTESIAN_POINT ( 'NONE',  ( 0.0000000000000000000, 2.025000000000023892, 0.0000000000000000000 ) ) ;
#228 = AXIS2_PLACEMENT_3D ( 'NONE', #198, #221, #55 ) ;
#229 = APPROVAL_ROLE ( '' ) ;
#230 = DIRECTION ( 'NONE',  ( 1.000000000000000000, 0.0000000000000000000, 0.0000000000000000000 ) ) ;
#231 = PERSON_AND_ORGANIZATION_ROLE ( 'design_owner' ) ;
#232 = CIRCLE ( 'NONE', #118, 2.425000000000025135 ) ;
#233 = DESIGN_CONTEXT ( 'detailed design', #211, 'design' ) ;
#234 = ADVANCED_BREP_SHAPE_REPRESENTATION ( '321711', ( #92, #85, #61 ), #46 ) ;
#235 = EDGE_CURVE ( 'NONE', #5, #5, #150, .T. ) ;
#236 = ORIENTED_EDGE ( 'NONE', *, *, #31, .F. ) ;
#237 = ORIENTED_EDGE ( 'NONE', *, *, #69, .F. ) ;
#238 = DATE_TIME_ROLE ( 'classification_date' ) ;
#239 = ORIENTED_EDGE ( 'NONE', *, *, #51, .T. ) ;
#240 = PLANE ( 'NONE',  #29 ) ;
#241 = PRODUCT_DEFINITION_SHAPE ( 'NONE', 'NONE',  #134 ) ;
#242 = DIRECTION ( 'NONE',  ( -3.491481338843133355E-15, 1.224646799147353207E-16, -1.000000000000000000 ) ) ;
#243 = AXIS2_PLACEMENT_3D ( 'NONE', #194, #182, #3 ) ;
ENDSEC;
END-ISO-10303-21;
