ISO-10303-21;
HEADER;
FILE_DESCRIPTION (( 'STEP AP203' ),
    '1' );
FILE_NAME ('321710.step',
    '2021-12-02T12:56:47',
    ( '' ),
    ( '' ),
    'SwSTEP 2.0',
    'SolidWorks 2019',
    '' );
FILE_SCHEMA (( 'CONFIG_CONTROL_DESIGN' ));
ENDSEC;

DATA;
#1 = EDGE_LOOP ( 'NONE', ( #224 ) ) ;
#2 = CALENDAR_DATE ( 2021, 2, 12 ) ;
#3 = APPROVAL ( #133, 'UNSPECIFIED' ) ;
#4 = CARTESIAN_POINT ( 'NONE',  ( 2.779219145719134403E-13, -9.748188521212932624E-15, 79.60000000000000853 ) ) ;
#5 = DIRECTION ( 'NONE',  ( 0.0000000000000000000, 1.000000000000000000, 0.0000000000000000000 ) ) ;
#6 = CARTESIAN_POINT ( 'NONE',  ( 2.793185071074506684E-13, 1.199807826129472128E-32, 80.00000000000000000 ) ) ;
#7 = FACE_OUTER_BOUND ( 'NONE', #179, .T. ) ;
#8 = FACE_OUTER_BOUND ( 'NONE', #124, .T. ) ;
#9 = DATE_TIME_ROLE ( 'creation_date' ) ;
#10 = MANIFOLD_SOLID_BREP ( 'Corps-Déplacer/Copier1[1]', #70 ) ;
#11 = AXIS2_PLACEMENT_3D ( 'NONE', #165, #210, #24 ) ;
#12 = CALENDAR_DATE ( 2021, 2, 12 ) ;
#13 = CARTESIAN_POINT ( 'NONE',  ( 0.0000000000000000000, 2.020000000000023554, 0.0000000000000000000 ) ) ;
#14 = CIRCLE ( 'NONE', #144, 2.420000000000024798 ) ;
#15 = VERTEX_POINT ( 'NONE', #65 ) ;
#16 = PERSON_AND_ORGANIZATION ( #240, #159 ) ;
#17 = EDGE_LOOP ( 'NONE', ( #143 ) ) ;
#18 = ADVANCED_FACE ( 'NONE', ( #111 ), #182, .T. ) ;
#19 = ORIENTED_EDGE ( 'NONE', *, *, #125, .F. ) ;
#20 = AXIS2_PLACEMENT_3D ( 'NONE', #78, #187, #23 ) ;
#21 = CYLINDRICAL_SURFACE ( 'NONE', #75, 2.420000000000024354 ) ;
#22 = DIRECTION ( 'NONE',  ( -3.491481338843133355E-15, 1.224646799147353207E-16, -1.000000000000000000 ) ) ;
#23 = DIRECTION ( 'NONE',  ( -4.275831445896957731E-31, -1.000000000000000000, -1.224646799147352961E-16 ) ) ;
#24 = DIRECTION ( 'NONE',  ( 0.0000000000000000000, 1.000000000000000000, 0.0000000000000000000 ) ) ;
#25 = FACE_OUTER_BOUND ( 'NONE', #1, .T. ) ;
#26 = CC_DESIGN_PERSON_AND_ORGANIZATION_ASSIGNMENT ( #74, #108, ( #172 ) ) ;
#27 = DATE_AND_TIME ( #171, #149 ) ;
#28 = CARTESIAN_POINT ( 'NONE',  ( 0.0000000000000000000, 0.0000000000000000000, 0.0000000000000000000 ) ) ;
#29 = COORDINATED_UNIVERSAL_TIME_OFFSET ( 1, 0, .AHEAD. ) ;
#30 = EDGE_LOOP ( 'NONE', ( #203 ) ) ;
#31 = ADVANCED_FACE ( 'NONE', ( #130, #148 ), #92, .T. ) ;
#32 = PERSON_AND_ORGANIZATION ( #240, #159 ) ;
#33 = AXIS2_PLACEMENT_3D ( 'NONE', #6, #129, #169 ) ;
#34 = LOCAL_TIME ( 13, 56, 47.00000000000000000, #87 ) ;
#35 = EDGE_LOOP ( 'NONE', ( #72 ) ) ;
#36 = CALENDAR_DATE ( 2021, 2, 12 ) ;
#37 = DIRECTION ( 'NONE',  ( 0.0000000000000000000, 1.000000000000000000, 0.0000000000000000000 ) ) ;
#38 =( GEOMETRIC_REPRESENTATION_CONTEXT ( 3 ) GLOBAL_UNCERTAINTY_ASSIGNED_CONTEXT ( ( #56 ) ) GLOBAL_UNIT_ASSIGNED_CONTEXT ( ( #85, #136, #63 ) ) REPRESENTATION_CONTEXT ( 'NONE', 'WORKASPACE' ) );
#39 = DIRECTION ( 'NONE',  ( 3.491481338843133355E-15, -1.224646799147353207E-16, 1.000000000000000000 ) ) ;
#40 = DIRECTION ( 'NONE',  ( 0.0000000000000000000, 1.000000000000000000, 0.0000000000000000000 ) ) ;
#41 = DIRECTION ( 'NONE',  ( -3.491481338843133355E-15, 1.224646799147353207E-16, -1.000000000000000000 ) ) ;
#42 = AXIS2_PLACEMENT_3D ( 'NONE', #151, #41, #58 ) ;
#43 = AXIS2_PLACEMENT_3D ( 'NONE', #59, #116, #102 ) ;
#44 = APPROVAL_PERSON_ORGANIZATION ( #218, #3, #197 ) ;
#45 = DIRECTION ( 'NONE',  ( -3.491481338843133355E-15, 1.224646799147353207E-16, -1.000000000000000000 ) ) ;
#46 = APPLICATION_PROTOCOL_DEFINITION ( 'international standard', 'config_control_design', 1994, #200 ) ;
#47 = AXIS2_PLACEMENT_3D ( 'NONE', #230, #80, #150 ) ;
#48 = VERTEX_POINT ( 'NONE', #13 ) ;
#49 = CALENDAR_DATE ( 2021, 2, 12 ) ;
#50 = EDGE_CURVE ( 'NONE', #15, #15, #189, .T. ) ;
#51 = ORIENTED_EDGE ( 'NONE', *, *, #105, .T. ) ;
#52 = APPROVAL_ROLE ( '' ) ;
#53 = EDGE_LOOP ( 'NONE', ( #109 ) ) ;
#54 = EDGE_CURVE ( 'NONE', #214, #214, #14, .T. ) ;
#55 = ORIENTED_EDGE ( 'NONE', *, *, #105, .F. ) ;
#56 = UNCERTAINTY_MEASURE_WITH_UNIT (LENGTH_MEASURE( 1.000000000000000082E-05 ), #85, 'distance_accuracy_value', 'NONE');
#57 = CARTESIAN_POINT ( 'NONE',  ( 4.189777606611760026E-14, -1.469576158976823947E-15, 12.00000000000000000 ) ) ;
#58 = DIRECTION ( 'NONE',  ( 3.979194099973587385E-31, 1.000000000000000000, 1.120043566617245272E-16 ) ) ;
#59 = CARTESIAN_POINT ( 'NONE',  ( 4.443769375659085536E-14, -1.558664479029722929E-15, 12.72746133917898348 ) ) ;
#60 = FACE_BOUND ( 'NONE', #184, .T. ) ;
#61 = CYLINDRICAL_SURFACE ( 'NONE', #211, 1.999999999999996669 ) ;
#62 = AXIS2_PLACEMENT_3D ( 'NONE', #115, #83, #117 ) ;
#63 =( NAMED_UNIT ( * ) SI_UNIT ( $, .STERADIAN. ) SOLID_ANGLE_UNIT ( ) );
#64 = DATE_AND_TIME ( #12, #34 ) ;
#65 = CARTESIAN_POINT ( 'NONE',  ( 4.189777606611760026E-14, 2.420000000000023910, 12.00000000000000000 ) ) ;
#66 = VERTEX_POINT ( 'NONE', #138 ) ;
#67 = CARTESIAN_POINT ( 'NONE',  ( 4.189777606611760026E-14, 2.420000000000023910, 12.00000000000000000 ) ) ;
#68 = CC_DESIGN_PERSON_AND_ORGANIZATION_ASSIGNMENT ( #32, #161, ( #71 ) ) ;
#69 = DATE_AND_TIME ( #2, #243 ) ;
#70 = CLOSED_SHELL ( 'NONE', ( #77, #31, #170, #162, #103 ) ) ;
#71 = PRODUCT_DEFINITION_FORMATION_WITH_SPECIFIED_SOURCE ( 'ANY', '', #96, .NOT_KNOWN. ) ;
#72 = ORIENTED_EDGE ( 'NONE', *, *, #137, .F. ) ;
#73 = ORIENTED_EDGE ( 'NONE', *, *, #84, .T. ) ;
#74 = PERSON_AND_ORGANIZATION ( #240, #159 ) ;
#75 = AXIS2_PLACEMENT_3D ( 'NONE', #28, #135, #215 ) ;
#76 = CARTESIAN_POINT ( 'NONE',  ( 2.793185071074506684E-13, -9.797174393178826052E-15, 80.00000000000000000 ) ) ;
#77 = ADVANCED_FACE ( 'NONE', ( #25 ), #227, .F. ) ;
#78 = CARTESIAN_POINT ( 'NONE',  ( -8.637179520711955912E-31, 3.029514760976987619E-32, -2.473786534277682020E-16 ) ) ;
#79 = AXIS2_PLACEMENT_3D ( 'NONE', #82, #206, #37 ) ;
#80 = DIRECTION ( 'NONE',  ( 3.491481338843133355E-15, -1.224646799147353207E-16, 1.000000000000000000 ) ) ;
#81 = CC_DESIGN_APPROVAL ( #113, ( #71 ) ) ;
#82 = CARTESIAN_POINT ( 'NONE',  ( 4.189777606611760026E-14, -1.469576158976823947E-15, 12.00000000000000000 ) ) ;
#83 = DIRECTION ( 'NONE',  ( -3.491481338843133355E-15, 1.224646799147353207E-16, -1.000000000000000000 ) ) ;
#84 = EDGE_CURVE ( 'NONE', #234, #234, #110, .T. ) ;
#85 =( LENGTH_UNIT ( ) NAMED_UNIT ( * ) SI_UNIT ( .MILLI., .METRE. ) );
#86 = APPLICATION_CONTEXT ( 'configuration controlled 3d designs of mechanical parts and assemblies' ) ;
#87 = COORDINATED_UNIVERSAL_TIME_OFFSET ( 1, 0, .AHEAD. ) ;
#88 = MANIFOLD_SOLID_BREP ( 'Corps-Déplacer/Copier1[2]', #180 ) ;
#89 = PRODUCT_DEFINITION ( 'UNKNOWN', '', #71, #190 ) ;
#90 = PERSON_AND_ORGANIZATION_ROLE ( 'creator' ) ;
#91 = ORIENTED_EDGE ( 'NONE', *, *, #125, .T. ) ;
#92 = CONICAL_SURFACE ( 'NONE', #79, 2.420000000000024798, 0.5235987755982995928 ) ;
#93 = LOCAL_TIME ( 13, 56, 47.00000000000000000, #160 ) ;
#94 = PERSON_AND_ORGANIZATION ( #240, #159 ) ;
#95 = EDGE_LOOP ( 'NONE', ( #164 ) ) ;
#96 = PRODUCT ( '321710', '321710', '', ( #193 ) ) ;
#97 = SECURITY_CLASSIFICATION_LEVEL ( 'unclassified' ) ;
#98 = FACE_BOUND ( 'NONE', #35, .T. ) ;
#99 = FACE_OUTER_BOUND ( 'NONE', #222, .T. ) ;
#100 = AXIS2_PLACEMENT_3D ( 'NONE', #152, #212, #231 ) ;
#101 = DIRECTION ( 'NONE',  ( -3.491481338843133355E-15, 1.224646799147353207E-16, -1.000000000000000000 ) ) ;
#102 = DIRECTION ( 'NONE',  ( 0.0000000000000000000, 1.000000000000000000, 0.0000000000000000000 ) ) ;
#103 = ADVANCED_FACE ( 'NONE', ( #7 ), #208, .F. ) ;
#104 = DIRECTION ( 'NONE',  ( 4.275831445896958607E-31, 1.000000000000000000, 1.224646799147353207E-16 ) ) ;
#105 = EDGE_CURVE ( 'NONE', #66, #66, #185, .T. ) ;
#106 = DIRECTION ( 'NONE',  ( 0.0000000000000000000, 0.0000000000000000000, 1.000000000000000000 ) ) ;
#107 = CARTESIAN_POINT ( 'NONE',  ( 2.779219145719134403E-13, 1.999999999999991340, 79.60000000000000853 ) ) ;
#108 = PERSON_AND_ORGANIZATION_ROLE ( 'classification_officer' ) ;
#109 = ORIENTED_EDGE ( 'NONE', *, *, #54, .F. ) ;
#110 = CIRCLE ( 'NONE', #43, 1.999999999999992228 ) ;
#111 = FACE_OUTER_BOUND ( 'NONE', #17, .T. ) ;
#112 = EDGE_LOOP ( 'NONE', ( #55 ) ) ;
#113 = APPROVAL ( #134, 'UNSPECIFIED' ) ;
#114 = AXIS2_PLACEMENT_3D ( 'NONE', #57, #166, #128 ) ;
#115 = CARTESIAN_POINT ( 'NONE',  ( -8.637179520711955912E-31, 3.029514760976987619E-32, -2.473786534277682020E-16 ) ) ;
#116 = DIRECTION ( 'NONE',  ( -3.491481338843133355E-15, 1.224646799147353207E-16, -1.000000000000000000 ) ) ;
#117 = DIRECTION ( 'NONE',  ( 4.275831445896957731E-31, 1.000000000000000000, 1.224646799147352961E-16 ) ) ;
#118 = FACE_OUTER_BOUND ( 'NONE', #221, .T. ) ;
#119 = PERSON_AND_ORGANIZATION_ROLE ( 'creator' ) ;
#120 = PERSON_AND_ORGANIZATION ( #240, #159 ) ;
#121 = DATE_AND_TIME ( #49, #93 ) ;
#122 = SHAPE_DEFINITION_REPRESENTATION ( #242, #235 ) ;
#123 = APPROVAL_DATE_TIME ( #69, #225 ) ;
#124 = EDGE_LOOP ( 'NONE', ( #205 ) ) ;
#125 = EDGE_CURVE ( 'NONE', #157, #157, #228, .T. ) ;
#126 = ORIENTED_EDGE ( 'NONE', *, *, #137, .T. ) ;
#127 = FACE_OUTER_BOUND ( 'NONE', #95, .T. ) ;
#128 = DIRECTION ( 'NONE',  ( 0.0000000000000000000, 1.000000000000000000, 0.0000000000000000000 ) ) ;
#129 = DIRECTION ( 'NONE',  ( -3.491481338843133355E-15, 1.224646799147353207E-16, -1.000000000000000000 ) ) ;
#130 = FACE_BOUND ( 'NONE', #178, .T. ) ;
#131 = APPROVAL_PERSON_ORGANIZATION ( #173, #113, #174 ) ;
#132 = CARTESIAN_POINT ( 'NONE',  ( 0.0000000000000000000, 0.0000000000000000000, 0.0000000000000000000 ) ) ;
#133 = APPROVAL_STATUS ( 'not_yet_approved' ) ;
#134 = APPROVAL_STATUS ( 'not_yet_approved' ) ;
#135 = DIRECTION ( 'NONE',  ( -3.491481338843133355E-15, 1.224646799147353207E-16, -1.000000000000000000 ) ) ;
#136 =( NAMED_UNIT ( * ) PLANE_ANGLE_UNIT ( ) SI_UNIT ( $, .RADIAN. ) );
#137 = EDGE_CURVE ( 'NONE', #48, #48, #167, .T. ) ;
#138 = CARTESIAN_POINT ( 'NONE',  ( 1.396592535537253342E-15, 2.420000000000024354, 0.3999999999999999667 ) ) ;
#139 = CIRCLE ( 'NONE', #145, 2.000000000000000888 ) ;
#140 = CC_DESIGN_PERSON_AND_ORGANIZATION_ASSIGNMENT ( #16, #90, ( #71 ) ) ;
#141 = ORIENTED_EDGE ( 'NONE', *, *, #183, .F. ) ;
#142 = DATE_AND_TIME ( #36, #181 ) ;
#143 = ORIENTED_EDGE ( 'NONE', *, *, #50, .F. ) ;
#144 = AXIS2_PLACEMENT_3D ( 'NONE', #209, #101, #192 ) ;
#145 = AXIS2_PLACEMENT_3D ( 'NONE', #4, #226, #5 ) ;
#146 = ADVANCED_FACE ( 'NONE', ( #188, #98 ), #204, .T. ) ;
#147 = CARTESIAN_POINT ( 'NONE',  ( 4.189777606611760026E-14, 1.814709337020864784E-32, 12.00000000000000000 ) ) ;
#148 = FACE_OUTER_BOUND ( 'NONE', #53, .T. ) ;
#149 = LOCAL_TIME ( 13, 56, 47.00000000000000000, #29 ) ;
#150 = DIRECTION ( 'NONE',  ( -4.275831445896958607E-31, -1.000000000000000000, -1.224646799147353207E-16 ) ) ;
#151 = CARTESIAN_POINT ( 'NONE',  ( 1.396592535537252356E-15, -4.898587196589408761E-17, 0.3999999999999996891 ) ) ;
#152 = CARTESIAN_POINT ( 'NONE',  ( -4.318589760355977956E-31, 1.514757380488493810E-32, -1.236893267138841010E-16 ) ) ;
#153 = CC_DESIGN_DATE_AND_TIME_ASSIGNMENT ( #27, #9, ( #89 ) ) ;
#154 = AXIS2_PLACEMENT_3D ( 'NONE', #147, #39, #191 ) ;
#155 = VERTEX_POINT ( 'NONE', #107 ) ;
#156 = APPLICATION_PROTOCOL_DEFINITION ( 'international standard', 'config_control_design', 1994, #86 ) ;
#157 = VERTEX_POINT ( 'NONE', #213 ) ;
#158 = ADVANCED_FACE ( 'NONE', ( #99 ), #168, .T. ) ;
#159 = ORGANIZATION ( 'UNSPECIFIED', 'UNSPECIFIED', '' ) ;
#160 = COORDINATED_UNIVERSAL_TIME_OFFSET ( 1, 0, .AHEAD. ) ;
#161 = PERSON_AND_ORGANIZATION_ROLE ( 'design_supplier' ) ;
#162 = ADVANCED_FACE ( 'NONE', ( #118, #60 ), #219, .T. ) ;
#163 = AXIS2_PLACEMENT_3D ( 'NONE', #76, #22, #40 ) ;
#164 = ORIENTED_EDGE ( 'NONE', *, *, #50, .T. ) ;
#165 = CARTESIAN_POINT ( 'NONE',  ( 2.793185071074506684E-13, -9.797174393178826052E-15, 80.00000000000000000 ) ) ;
#166 = DIRECTION ( 'NONE',  ( -3.491481338843133355E-15, 1.224646799147353207E-16, -1.000000000000000000 ) ) ;
#167 = CIRCLE ( 'NONE', #62, 2.020000000000023554 ) ;
#168 = PLANE ( 'NONE',  #100 ) ;
#169 = DIRECTION ( 'NONE',  ( 4.275831445896958607E-31, 1.000000000000000000, 1.224646799147353207E-16 ) ) ;
#170 = ADVANCED_FACE ( 'NONE', ( #8, #232 ), #61, .T. ) ;
#171 = CALENDAR_DATE ( 2021, 2, 12 ) ;
#172 = SECURITY_CLASSIFICATION ( '', '', #97 ) ;
#173 = PERSON_AND_ORGANIZATION ( #240, #159 ) ;
#174 = APPROVAL_ROLE ( '' ) ;
#175 = CC_DESIGN_SECURITY_CLASSIFICATION ( #172, ( #71 ) ) ;
#176 = CC_DESIGN_APPROVAL ( #3, ( #89 ) ) ;
#177 = PRODUCT_RELATED_PRODUCT_CATEGORY ( 'detail', '', ( #96 ) ) ;
#178 = EDGE_LOOP ( 'NONE', ( #73 ) ) ;
#179 = EDGE_LOOP ( 'NONE', ( #19 ) ) ;
#180 = CLOSED_SHELL ( 'NONE', ( #217, #18, #158, #146 ) ) ;
#181 = LOCAL_TIME ( 13, 56, 47.00000000000000000, #223 ) ;
#182 = PLANE ( 'NONE',  #47 ) ;
#183 = EDGE_CURVE ( 'NONE', #155, #155, #139, .T. ) ;
#184 = EDGE_LOOP ( 'NONE', ( #91 ) ) ;
#185 = CIRCLE ( 'NONE', #42, 2.420000000000024354 ) ;
#186 = FACE_OUTER_BOUND ( 'NONE', #112, .T. ) ;
#187 = DIRECTION ( 'NONE',  ( 3.491481338843133355E-15, -1.224646799147353207E-16, 1.000000000000000000 ) ) ;
#188 = FACE_OUTER_BOUND ( 'NONE', #201, .T. ) ;
#189 = CIRCLE ( 'NONE', #114, 2.420000000000024798 ) ;
#190 = DESIGN_CONTEXT ( 'detailed design', #200, 'design' ) ;
#191 = DIRECTION ( 'NONE',  ( -4.275831445896958607E-31, -1.000000000000000000, -1.224646799147353207E-16 ) ) ;
#192 = DIRECTION ( 'NONE',  ( 0.0000000000000000000, 1.000000000000000000, 0.0000000000000000000 ) ) ;
#193 = MECHANICAL_CONTEXT ( 'NONE', #86, 'mechanical' ) ;
#194 = AXIS2_PLACEMENT_3D ( 'NONE', #196, #106, #216 ) ;
#195 = APPROVAL_DATE_TIME ( #64, #113 ) ;
#196 = CARTESIAN_POINT ( 'NONE',  ( 0.0000000000000000000, 0.0000000000000000000, 0.0000000000000000000 ) ) ;
#197 = APPROVAL_ROLE ( '' ) ;
#198 = APPROVAL_DATE_TIME ( #121, #3 ) ;
#199 = CC_DESIGN_PERSON_AND_ORGANIZATION_ASSIGNMENT ( #120, #119, ( #89 ) ) ;
#200 = APPLICATION_CONTEXT ( 'configuration controlled 3d designs of mechanical parts and assemblies' ) ;
#201 = EDGE_LOOP ( 'NONE', ( #51 ) ) ;
#202 = COORDINATED_UNIVERSAL_TIME_OFFSET ( 1, 0, .AHEAD. ) ;
#203 = ORIENTED_EDGE ( 'NONE', *, *, #183, .T. ) ;
#204 = CONICAL_SURFACE ( 'NONE', #20, 2.020000000000023554, 0.7853981633974496113 ) ;
#205 = ORIENTED_EDGE ( 'NONE', *, *, #84, .F. ) ;
#206 = DIRECTION ( 'NONE',  ( -3.491481338843133355E-15, 1.224646799147353207E-16, -1.000000000000000000 ) ) ;
#207 = CC_DESIGN_DATE_AND_TIME_ASSIGNMENT ( #142, #220, ( #172 ) ) ;
#208 = PLANE ( 'NONE',  #33 ) ;
#209 = CARTESIAN_POINT ( 'NONE',  ( 4.189777606611760026E-14, -1.469576158976823947E-15, 12.00000000000000000 ) ) ;
#210 = DIRECTION ( 'NONE',  ( -3.491481338843133355E-15, 1.224646799147353207E-16, -1.000000000000000000 ) ) ;
#211 = AXIS2_PLACEMENT_3D ( 'NONE', #132, #45, #104 ) ;
#212 = DIRECTION ( 'NONE',  ( -3.491481338843133355E-15, 1.224646799147353207E-16, -1.000000000000000000 ) ) ;
#213 = CARTESIAN_POINT ( 'NONE',  ( 2.793185071074506684E-13, 1.599999999999991207, 80.00000000000000000 ) ) ;
#214 = VERTEX_POINT ( 'NONE', #67 ) ;
#215 = DIRECTION ( 'NONE',  ( 4.275831445896959482E-31, 1.000000000000000000, 1.224646799147353207E-16 ) ) ;
#216 = DIRECTION ( 'NONE',  ( 1.000000000000000000, 0.0000000000000000000, 0.0000000000000000000 ) ) ;
#217 = ADVANCED_FACE ( 'NONE', ( #127, #186 ), #21, .T. ) ;
#218 = PERSON_AND_ORGANIZATION ( #240, #159 ) ;
#219 = CONICAL_SURFACE ( 'NONE', #11, 1.600000000000000977, 0.7853981633974512766 ) ;
#220 = DATE_TIME_ROLE ( 'classification_date' ) ;
#221 = EDGE_LOOP ( 'NONE', ( #141 ) ) ;
#222 = EDGE_LOOP ( 'NONE', ( #126 ) ) ;
#223 = COORDINATED_UNIVERSAL_TIME_OFFSET ( 1, 0, .AHEAD. ) ;
#224 = ORIENTED_EDGE ( 'NONE', *, *, #54, .T. ) ;
#225 = APPROVAL ( #241, 'UNSPECIFIED' ) ;
#226 = DIRECTION ( 'NONE',  ( -3.491481338843133355E-15, 1.224646799147353207E-16, -1.000000000000000000 ) ) ;
#227 = PLANE ( 'NONE',  #154 ) ;
#228 = CIRCLE ( 'NONE', #163, 1.600000000000000977 ) ;
#229 = APPROVAL_PERSON_ORGANIZATION ( #94, #225, #52 ) ;
#230 = CARTESIAN_POINT ( 'NONE',  ( 4.189777606611760026E-14, 1.814709337020864784E-32, 12.00000000000000000 ) ) ;
#231 = DIRECTION ( 'NONE',  ( 4.275831445896958607E-31, 1.000000000000000000, 1.224646799147353207E-16 ) ) ;
#232 = FACE_OUTER_BOUND ( 'NONE', #30, .T. ) ;
#233 = CC_DESIGN_APPROVAL ( #225, ( #172 ) ) ;
#234 = VERTEX_POINT ( 'NONE', #237 ) ;
#235 = ADVANCED_BREP_SHAPE_REPRESENTATION ( '321710', ( #10, #88, #194 ), #38 ) ;
#236 = CC_DESIGN_PERSON_AND_ORGANIZATION_ASSIGNMENT ( #238, #239, ( #96 ) ) ;
#237 = CARTESIAN_POINT ( 'NONE',  ( 4.443769375659085536E-14, 1.999999999999990452, 12.72746133917898348 ) ) ;
#238 = PERSON_AND_ORGANIZATION ( #240, #159 ) ;
#239 = PERSON_AND_ORGANIZATION_ROLE ( 'design_owner' ) ;
#240 = PERSON ( 'UNSPECIFIED', 'UNSPECIFIED', 'UNSPECIFIED', ('UNSPECIFIED'), ('UNSPECIFIED'), ('UNSPECIFIED') ) ;
#241 = APPROVAL_STATUS ( 'not_yet_approved' ) ;
#242 = PRODUCT_DEFINITION_SHAPE ( 'NONE', 'NONE',  #89 ) ;
#243 = LOCAL_TIME ( 13, 56, 47.00000000000000000, #202 ) ;
ENDSEC;
END-ISO-10303-21;
