ISO-10303-21;
HEADER;
FILE_DESCRIPTION (( 'STEP AP203' ),
    '1' );
FILE_NAME ('321709.step',
    '2021-12-02T12:56:47',
    ( '' ),
    ( '' ),
    'SwSTEP 2.0',
    'SolidWorks 2019',
    '' );
FILE_SCHEMA (( 'CONFIG_CONTROL_DESIGN' ));
ENDSEC;

DATA;
#1 = DIRECTION ( 'NONE',  ( 0.0000000000000000000, 1.000000000000000000, 0.0000000000000000000 ) ) ;
#2 = EDGE_CURVE ( 'NONE', #206, #206, #59, .T. ) ;
#3 = CARTESIAN_POINT ( 'NONE',  ( 0.0000000000000000000, 0.0000000000000000000, 0.0000000000000000000 ) ) ;
#4 = DATE_AND_TIME ( #118, #22 ) ;
#5 =( GEOMETRIC_REPRESENTATION_CONTEXT ( 3 ) GLOBAL_UNCERTAINTY_ASSIGNED_CONTEXT ( ( #196 ) ) GLOBAL_UNIT_ASSIGNED_CONTEXT ( ( #189, #132, #97 ) ) REPRESENTATION_CONTEXT ( 'NONE', 'WORKASPACE' ) );
#6 = APPLICATION_PROTOCOL_DEFINITION ( 'international standard', 'config_control_design', 1994, #67 ) ;
#7 = CC_DESIGN_DATE_AND_TIME_ASSIGNMENT ( #137, #64, ( #151 ) ) ;
#8 = COORDINATED_UNIVERSAL_TIME_OFFSET ( 1, 0, .AHEAD. ) ;
#9 = EDGE_LOOP ( 'NONE', ( #195 ) ) ;
#10 = CIRCLE ( 'NONE', #227, 2.015000000000023217 ) ;
#11 = APPROVAL ( #169, 'UNSPECIFIED' ) ;
#12 = DESIGN_CONTEXT ( 'detailed design', #236, 'design' ) ;
#13 = EDGE_LOOP ( 'NONE', ( #82 ) ) ;
#14 = AXIS2_PLACEMENT_3D ( 'NONE', #126, #188, #87 ) ;
#15 = DIRECTION ( 'NONE',  ( 3.491481338843133355E-15, -1.224646799147353207E-16, 1.000000000000000000 ) ) ;
#16 = DIRECTION ( 'NONE',  ( -3.491481338843133355E-15, 1.224646799147353207E-16, -1.000000000000000000 ) ) ;
#17 = DIRECTION ( 'NONE',  ( -3.491481338843133355E-15, 1.224646799147353207E-16, -1.000000000000000000 ) ) ;
#18 = FACE_OUTER_BOUND ( 'NONE', #198, .T. ) ;
#19 = CARTESIAN_POINT ( 'NONE',  ( 4.189777606611760026E-14, -1.469576158976823947E-15, 12.00000000000000000 ) ) ;
#20 = MECHANICAL_CONTEXT ( 'NONE', #67, 'mechanical' ) ;
#21 = EDGE_CURVE ( 'NONE', #150, #150, #105, .T. ) ;
#22 = LOCAL_TIME ( 13, 56, 47.00000000000000000, #171 ) ;
#23 = DIRECTION ( 'NONE',  ( -3.491481338843133355E-15, 1.224646799147353207E-16, -1.000000000000000000 ) ) ;
#24 = CARTESIAN_POINT ( 'NONE',  ( 2.793185071074506684E-13, 1.599999999999991207, 80.00000000000000000 ) ) ;
#25 = AXIS2_PLACEMENT_3D ( 'NONE', #221, #146, #35 ) ;
#26 = ORIENTED_EDGE ( 'NONE', *, *, #230, .T. ) ;
#27 = ORIENTED_EDGE ( 'NONE', *, *, #2, .F. ) ;
#28 = PERSON_AND_ORGANIZATION_ROLE ( 'design_supplier' ) ;
#29 = PERSON_AND_ORGANIZATION ( #32, #204 ) ;
#30 = CC_DESIGN_PERSON_AND_ORGANIZATION_ASSIGNMENT ( #173, #28, ( #156 ) ) ;
#31 = ORIENTED_EDGE ( 'NONE', *, *, #51, .T. ) ;
#32 = PERSON ( 'UNSPECIFIED', 'UNSPECIFIED', 'UNSPECIFIED', ('UNSPECIFIED'), ('UNSPECIFIED'), ('UNSPECIFIED') ) ;
#33 = PLANE ( 'NONE',  #133 ) ;
#34 = AXIS2_PLACEMENT_3D ( 'NONE', #240, #144, #203 ) ;
#35 = DIRECTION ( 'NONE',  ( 0.0000000000000000000, 1.000000000000000000, 0.0000000000000000000 ) ) ;
#36 = FACE_OUTER_BOUND ( 'NONE', #9, .T. ) ;
#37 = ADVANCED_FACE ( 'NONE', ( #48 ), #33, .F. ) ;
#38 = DIRECTION ( 'NONE',  ( -3.491481338843133355E-15, 1.224646799147353207E-16, -1.000000000000000000 ) ) ;
#39 = FACE_OUTER_BOUND ( 'NONE', #65, .T. ) ;
#40 = PERSON_AND_ORGANIZATION ( #32, #204 ) ;
#41 = APPROVAL_ROLE ( '' ) ;
#42 = CLOSED_SHELL ( 'NONE', ( #57, #179, #131, #62, #37 ) ) ;
#43 = ORIENTED_EDGE ( 'NONE', *, *, #235, .F. ) ;
#44 = CARTESIAN_POINT ( 'NONE',  ( 4.440745664122808032E-14, -1.557603903790997885E-15, 12.71880108514113950 ) ) ;
#45 = DIRECTION ( 'NONE',  ( 0.0000000000000000000, 1.000000000000000000, 0.0000000000000000000 ) ) ;
#46 = LOCAL_TIME ( 13, 56, 47.00000000000000000, #135 ) ;
#47 = CARTESIAN_POINT ( 'NONE',  ( -4.307900181741235599E-31, 1.511007981031839138E-32, -1.233831650140972572E-16 ) ) ;
#48 = FACE_OUTER_BOUND ( 'NONE', #174, .T. ) ;
#49 = FACE_OUTER_BOUND ( 'NONE', #159, .T. ) ;
#50 = CONICAL_SURFACE ( 'NONE', #120, 1.600000000000000977, 0.7853981633974512766 ) ;
#51 = EDGE_CURVE ( 'NONE', #129, #129, #78, .T. ) ;
#52 = CARTESIAN_POINT ( 'NONE',  ( 4.189777606611760026E-14, 2.415000000000023572, 12.00000000000000000 ) ) ;
#53 = VERTEX_POINT ( 'NONE', #24 ) ;
#54 = VERTEX_POINT ( 'NONE', #208 ) ;
#55 = AXIS2_PLACEMENT_3D ( 'NONE', #47, #125, #205 ) ;
#56 = PERSON_AND_ORGANIZATION_ROLE ( 'creator' ) ;
#57 = ADVANCED_FACE ( 'NONE', ( #18 ), #140, .F. ) ;
#58 = APPLICATION_PROTOCOL_DEFINITION ( 'international standard', 'config_control_design', 1994, #236 ) ;
#59 = CIRCLE ( 'NONE', #181, 2.415000000000024905 ) ;
#60 = AXIS2_PLACEMENT_3D ( 'NONE', #19, #124, #184 ) ;
#61 = APPROVAL_STATUS ( 'not_yet_approved' ) ;
#62 = ADVANCED_FACE ( 'NONE', ( #141, #226 ), #50, .T. ) ;
#63 = ORIENTED_EDGE ( 'NONE', *, *, #230, .F. ) ;
#64 = DATE_TIME_ROLE ( 'classification_date' ) ;
#65 = EDGE_LOOP ( 'NONE', ( #63 ) ) ;
#66 = FACE_OUTER_BOUND ( 'NONE', #177, .T. ) ;
#67 = APPLICATION_CONTEXT ( 'configuration controlled 3d designs of mechanical parts and assemblies' ) ;
#68 = DIRECTION ( 'NONE',  ( 0.0000000000000000000, 1.000000000000000000, 0.0000000000000000000 ) ) ;
#69 = CC_DESIGN_SECURITY_CLASSIFICATION ( #151, ( #156 ) ) ;
#70 = DIRECTION ( 'NONE',  ( 4.275831445896958607E-31, 1.000000000000000000, 1.224646799147353207E-16 ) ) ;
#71 = DIRECTION ( 'NONE',  ( -4.275831445896958607E-31, -1.000000000000000000, -1.224646799147353207E-16 ) ) ;
#72 = CC_DESIGN_PERSON_AND_ORGANIZATION_ASSIGNMENT ( #77, #99, ( #156 ) ) ;
#73 = COORDINATED_UNIVERSAL_TIME_OFFSET ( 1, 0, .AHEAD. ) ;
#74 = APPROVAL_DATE_TIME ( #167, #210 ) ;
#75 = CALENDAR_DATE ( 2021, 2, 12 ) ;
#76 = DATE_AND_TIME ( #75, #243 ) ;
#77 = PERSON_AND_ORGANIZATION ( #32, #204 ) ;
#78 = CIRCLE ( 'NONE', #25, 2.000000000000000888 ) ;
#79 = EDGE_LOOP ( 'NONE', ( #27 ) ) ;
#80 = ORIENTED_EDGE ( 'NONE', *, *, #51, .F. ) ;
#81 = SHAPE_DEFINITION_REPRESENTATION ( #154, #213 ) ;
#82 = ORIENTED_EDGE ( 'NONE', *, *, #235, .T. ) ;
#83 = AXIS2_PLACEMENT_3D ( 'NONE', #199, #17, #45 ) ;
#84 = EDGE_LOOP ( 'NONE', ( #104 ) ) ;
#85 = DIRECTION ( 'NONE',  ( 0.0000000000000000000, 1.000000000000000000, 0.0000000000000000000 ) ) ;
#86 = DIRECTION ( 'NONE',  ( -3.491481338843133355E-15, 1.224646799147353207E-16, -1.000000000000000000 ) ) ;
#87 = DIRECTION ( 'NONE',  ( -4.275831445896958607E-31, -1.000000000000000000, -1.224646799147353207E-16 ) ) ;
#88 = MANIFOLD_SOLID_BREP ( 'Corps-Déplacer/Copier1[2]', #233 ) ;
#89 = CYLINDRICAL_SURFACE ( 'NONE', #98, 1.999999999999996669 ) ;
#90 = ADVANCED_FACE ( 'NONE', ( #219, #224 ), #187, .T. ) ;
#91 = DIRECTION ( 'NONE',  ( -3.491481338843133355E-15, 1.224646799147353207E-16, -1.000000000000000000 ) ) ;
#92 = CALENDAR_DATE ( 2021, 2, 12 ) ;
#93 = CONICAL_SURFACE ( 'NONE', #83, 2.415000000000024905, 0.5235987755982999259 ) ;
#94 = VERTEX_POINT ( 'NONE', #228 ) ;
#95 = PRODUCT ( '321709', '321709', '', ( #20 ) ) ;
#96 = PERSON_AND_ORGANIZATION_ROLE ( 'design_owner' ) ;
#97 =( NAMED_UNIT ( * ) SI_UNIT ( $, .STERADIAN. ) SOLID_ANGLE_UNIT ( ) );
#98 = AXIS2_PLACEMENT_3D ( 'NONE', #128, #38, #123 ) ;
#99 = PERSON_AND_ORGANIZATION_ROLE ( 'creator' ) ;
#100 = LOCAL_TIME ( 13, 56, 47.00000000000000000, #8 ) ;
#101 = PERSON_AND_ORGANIZATION ( #32, #204 ) ;
#102 = EDGE_LOOP ( 'NONE', ( #160 ) ) ;
#103 = CALENDAR_DATE ( 2021, 2, 12 ) ;
#104 = ORIENTED_EDGE ( 'NONE', *, *, #225, .T. ) ;
#105 = CIRCLE ( 'NONE', #60, 2.415000000000024905 ) ;
#106 = CIRCLE ( 'NONE', #152, 1.600000000000000977 ) ;
#107 = CARTESIAN_POINT ( 'NONE',  ( 4.189777606611760026E-14, -1.469576158976823947E-15, 12.00000000000000000 ) ) ;
#108 = CARTESIAN_POINT ( 'NONE',  ( 0.0000000000000000000, 0.0000000000000000000, 0.0000000000000000000 ) ) ;
#109 = FACE_BOUND ( 'NONE', #102, .T. ) ;
#110 = CARTESIAN_POINT ( 'NONE',  ( -8.615800363482471198E-31, 3.022015962063678276E-32, -2.467663300281945145E-16 ) ) ;
#111 = CONICAL_SURFACE ( 'NONE', #34, 2.015000000000023217, 0.7853981633974501664 ) ;
#112 = FACE_BOUND ( 'NONE', #161, .T. ) ;
#113 = DIRECTION ( 'NONE',  ( 0.0000000000000000000, 0.0000000000000000000, 1.000000000000000000 ) ) ;
#114 = PERSON_AND_ORGANIZATION ( #32, #204 ) ;
#115 = AXIS2_PLACEMENT_3D ( 'NONE', #108, #86, #186 ) ;
#116 = APPROVAL ( #61, 'UNSPECIFIED' ) ;
#117 = CARTESIAN_POINT ( 'NONE',  ( 1.396592535537253342E-15, 2.415000000000024905, 0.3999999999999999667 ) ) ;
#118 = CALENDAR_DATE ( 2021, 2, 12 ) ;
#119 = PERSON_AND_ORGANIZATION ( #32, #204 ) ;
#120 = AXIS2_PLACEMENT_3D ( 'NONE', #164, #223, #68 ) ;
#121 = CC_DESIGN_APPROVAL ( #210, ( #156 ) ) ;
#122 = SECURITY_CLASSIFICATION_LEVEL ( 'unclassified' ) ;
#123 = DIRECTION ( 'NONE',  ( 4.275831445896958607E-31, 1.000000000000000000, 1.224646799147353207E-16 ) ) ;
#124 = DIRECTION ( 'NONE',  ( -3.491481338843133355E-15, 1.224646799147353207E-16, -1.000000000000000000 ) ) ;
#125 = DIRECTION ( 'NONE',  ( -3.491481338843133355E-15, 1.224646799147353207E-16, -1.000000000000000000 ) ) ;
#126 = CARTESIAN_POINT ( 'NONE',  ( 4.189777606611760026E-14, 1.810959937564209565E-32, 12.00000000000000000 ) ) ;
#127 = PRODUCT_RELATED_PRODUCT_CATEGORY ( 'detail', '', ( #95 ) ) ;
#128 = CARTESIAN_POINT ( 'NONE',  ( 0.0000000000000000000, 0.0000000000000000000, 0.0000000000000000000 ) ) ;
#129 = VERTEX_POINT ( 'NONE', #147 ) ;
#130 = DATE_TIME_ROLE ( 'creation_date' ) ;
#131 = ADVANCED_FACE ( 'NONE', ( #49, #166 ), #89, .T. ) ;
#132 =( NAMED_UNIT ( * ) PLANE_ANGLE_UNIT ( ) SI_UNIT ( $, .RADIAN. ) );
#133 = AXIS2_PLACEMENT_3D ( 'NONE', #237, #162, #70 ) ;
#134 = DATE_AND_TIME ( #217, #46 ) ;
#135 = COORDINATED_UNIVERSAL_TIME_OFFSET ( 1, 0, .AHEAD. ) ;
#136 = ORIENTED_EDGE ( 'NONE', *, *, #21, .T. ) ;
#137 = DATE_AND_TIME ( #103, #100 ) ;
#138 = ORIENTED_EDGE ( 'NONE', *, *, #21, .F. ) ;
#139 = EDGE_CURVE ( 'NONE', #54, #54, #193, .T. ) ;
#140 = PLANE ( 'NONE',  #142 ) ;
#141 = FACE_OUTER_BOUND ( 'NONE', #158, .T. ) ;
#142 = AXIS2_PLACEMENT_3D ( 'NONE', #241, #15, #71 ) ;
#143 = PLANE ( 'NONE',  #55 ) ;
#144 = DIRECTION ( 'NONE',  ( 3.491481338843133355E-15, -1.224646799147353207E-16, 1.000000000000000000 ) ) ;
#145 = PRODUCT_DEFINITION ( 'UNKNOWN', '', #156, #12 ) ;
#146 = DIRECTION ( 'NONE',  ( -3.491481338843133355E-15, 1.224646799147353207E-16, -1.000000000000000000 ) ) ;
#147 = CARTESIAN_POINT ( 'NONE',  ( 2.779219145719134403E-13, 1.999999999999991340, 79.60000000000000853 ) ) ;
#148 = AXIS2_PLACEMENT_3D ( 'NONE', #107, #183, #85 ) ;
#149 = APPROVAL_DATE_TIME ( #4, #11 ) ;
#150 = VERTEX_POINT ( 'NONE', #229 ) ;
#151 = SECURITY_CLASSIFICATION ( '', '', #122 ) ;
#152 = AXIS2_PLACEMENT_3D ( 'NONE', #153, #23, #1 ) ;
#153 = CARTESIAN_POINT ( 'NONE',  ( 2.793185071074506684E-13, -9.797174393178826052E-15, 80.00000000000000000 ) ) ;
#154 = PRODUCT_DEFINITION_SHAPE ( 'NONE', 'NONE',  #145 ) ;
#155 = CARTESIAN_POINT ( 'NONE',  ( 1.396592535537252356E-15, -4.898587196589408761E-17, 0.3999999999999996891 ) ) ;
#156 = PRODUCT_DEFINITION_FORMATION_WITH_SPECIFIED_SOURCE ( 'ANY', '', #95, .NOT_KNOWN. ) ;
#157 = CC_DESIGN_DATE_AND_TIME_ASSIGNMENT ( #76, #130, ( #145 ) ) ;
#158 = EDGE_LOOP ( 'NONE', ( #80 ) ) ;
#159 = EDGE_LOOP ( 'NONE', ( #194 ) ) ;
#160 = ORIENTED_EDGE ( 'NONE', *, *, #225, .F. ) ;
#161 = EDGE_LOOP ( 'NONE', ( #214 ) ) ;
#162 = DIRECTION ( 'NONE',  ( -3.491481338843133355E-15, 1.224646799147353207E-16, -1.000000000000000000 ) ) ;
#163 = DIRECTION ( 'NONE',  ( 0.0000000000000000000, 1.000000000000000000, 0.0000000000000000000 ) ) ;
#164 = CARTESIAN_POINT ( 'NONE',  ( 2.793185071074506684E-13, -9.797174393178826052E-15, 80.00000000000000000 ) ) ;
#165 = DIRECTION ( 'NONE',  ( -3.491481338843133355E-15, 1.224646799147353207E-16, -1.000000000000000000 ) ) ;
#166 = FACE_OUTER_BOUND ( 'NONE', #216, .T. ) ;
#167 = DATE_AND_TIME ( #92, #239 ) ;
#168 = AXIS2_PLACEMENT_3D ( 'NONE', #3, #113, #231 ) ;
#169 = APPROVAL_STATUS ( 'not_yet_approved' ) ;
#170 = MANIFOLD_SOLID_BREP ( 'Corps-Déplacer/Copier1[1]', #42 ) ;
#171 = COORDINATED_UNIVERSAL_TIME_OFFSET ( 1, 0, .AHEAD. ) ;
#172 = CC_DESIGN_PERSON_AND_ORGANIZATION_ASSIGNMENT ( #101, #197, ( #151 ) ) ;
#173 = PERSON_AND_ORGANIZATION ( #32, #204 ) ;
#174 = EDGE_LOOP ( 'NONE', ( #43 ) ) ;
#175 = CC_DESIGN_PERSON_AND_ORGANIZATION_ASSIGNMENT ( #114, #56, ( #145 ) ) ;
#176 = APPROVAL_PERSON_ORGANIZATION ( #29, #116, #178 ) ;
#177 = EDGE_LOOP ( 'NONE', ( #138 ) ) ;
#178 = APPROVAL_ROLE ( '' ) ;
#179 = ADVANCED_FACE ( 'NONE', ( #112, #66 ), #93, .T. ) ;
#180 = EDGE_LOOP ( 'NONE', ( #26 ) ) ;
#181 = AXIS2_PLACEMENT_3D ( 'NONE', #155, #165, #201 ) ;
#182 = CC_DESIGN_APPROVAL ( #11, ( #145 ) ) ;
#183 = DIRECTION ( 'NONE',  ( -3.491481338843133355E-15, 1.224646799147353207E-16, -1.000000000000000000 ) ) ;
#184 = DIRECTION ( 'NONE',  ( 0.0000000000000000000, 1.000000000000000000, 0.0000000000000000000 ) ) ;
#185 = ADVANCED_FACE ( 'NONE', ( #238 ), #143, .T. ) ;
#186 = DIRECTION ( 'NONE',  ( 4.275831445896958607E-31, 1.000000000000000000, 1.224646799147353207E-16 ) ) ;
#187 = CYLINDRICAL_SURFACE ( 'NONE', #115, 2.415000000000024905 ) ;
#188 = DIRECTION ( 'NONE',  ( 3.491481338843133355E-15, -1.224646799147353207E-16, 1.000000000000000000 ) ) ;
#189 =( LENGTH_UNIT ( ) NAMED_UNIT ( * ) SI_UNIT ( .MILLI., .METRE. ) );
#190 = ADVANCED_FACE ( 'NONE', ( #39 ), #202, .T. ) ;
#191 = APPROVAL_STATUS ( 'not_yet_approved' ) ;
#192 = APPROVAL_ROLE ( '' ) ;
#193 = CIRCLE ( 'NONE', #215, 1.999999999999992228 ) ;
#194 = ORIENTED_EDGE ( 'NONE', *, *, #139, .F. ) ;
#195 = ORIENTED_EDGE ( 'NONE', *, *, #2, .T. ) ;
#196 = UNCERTAINTY_MEASURE_WITH_UNIT (LENGTH_MEASURE( 1.000000000000000082E-05 ), #189, 'distance_accuracy_value', 'NONE');
#197 = PERSON_AND_ORGANIZATION_ROLE ( 'classification_officer' ) ;
#198 = EDGE_LOOP ( 'NONE', ( #136 ) ) ;
#199 = CARTESIAN_POINT ( 'NONE',  ( 4.189777606611760026E-14, -1.469576158976823947E-15, 12.00000000000000000 ) ) ;
#200 = CIRCLE ( 'NONE', #148, 2.415000000000024905 ) ;
#201 = DIRECTION ( 'NONE',  ( 3.987432597074980982E-31, 1.000000000000000000, 1.122362497396990842E-16 ) ) ;
#202 = PLANE ( 'NONE',  #14 ) ;
#203 = DIRECTION ( 'NONE',  ( -4.275831445896958607E-31, -1.000000000000000000, -1.224646799147353207E-16 ) ) ;
#204 = ORGANIZATION ( 'UNSPECIFIED', 'UNSPECIFIED', '' ) ;
#205 = DIRECTION ( 'NONE',  ( 4.275831445896958607E-31, 1.000000000000000000, 1.224646799147353207E-16 ) ) ;
#206 = VERTEX_POINT ( 'NONE', #117 ) ;
#207 = PERSON_AND_ORGANIZATION ( #32, #204 ) ;
#208 = CARTESIAN_POINT ( 'NONE',  ( 4.440745664122808032E-14, 1.999999999999990452, 12.71880108514113950 ) ) ;
#209 = APPROVAL_PERSON_ORGANIZATION ( #40, #11, #41 ) ;
#210 = APPROVAL ( #191, 'UNSPECIFIED' ) ;
#211 = COORDINATED_UNIVERSAL_TIME_OFFSET ( 1, 0, .AHEAD. ) ;
#212 = VERTEX_POINT ( 'NONE', #52 ) ;
#213 = ADVANCED_BREP_SHAPE_REPRESENTATION ( '321709', ( #170, #88, #168 ), #5 ) ;
#214 = ORIENTED_EDGE ( 'NONE', *, *, #139, .T. ) ;
#215 = AXIS2_PLACEMENT_3D ( 'NONE', #44, #16, #163 ) ;
#216 = EDGE_LOOP ( 'NONE', ( #31 ) ) ;
#217 = CALENDAR_DATE ( 2021, 2, 12 ) ;
#218 = ADVANCED_FACE ( 'NONE', ( #36, #109 ), #111, .T. ) ;
#219 = FACE_OUTER_BOUND ( 'NONE', #180, .T. ) ;
#220 = CC_DESIGN_PERSON_AND_ORGANIZATION_ASSIGNMENT ( #207, #96, ( #95 ) ) ;
#221 = CARTESIAN_POINT ( 'NONE',  ( 2.779219145719134403E-13, -9.748188521212932624E-15, 79.60000000000000853 ) ) ;
#222 = CC_DESIGN_APPROVAL ( #116, ( #151 ) ) ;
#223 = DIRECTION ( 'NONE',  ( -3.491481338843133355E-15, 1.224646799147353207E-16, -1.000000000000000000 ) ) ;
#224 = FACE_OUTER_BOUND ( 'NONE', #79, .T. ) ;
#225 = EDGE_CURVE ( 'NONE', #94, #94, #10, .T. ) ;
#226 = FACE_BOUND ( 'NONE', #13, .T. ) ;
#227 = AXIS2_PLACEMENT_3D ( 'NONE', #110, #91, #242 ) ;
#228 = CARTESIAN_POINT ( 'NONE',  ( 0.0000000000000000000, 2.015000000000023217, 0.0000000000000000000 ) ) ;
#229 = CARTESIAN_POINT ( 'NONE',  ( 4.189777606611760026E-14, 2.415000000000023572, 12.00000000000000000 ) ) ;
#230 = EDGE_CURVE ( 'NONE', #212, #212, #200, .T. ) ;
#231 = DIRECTION ( 'NONE',  ( 1.000000000000000000, 0.0000000000000000000, 0.0000000000000000000 ) ) ;
#232 = APPROVAL_DATE_TIME ( #134, #116 ) ;
#233 = CLOSED_SHELL ( 'NONE', ( #90, #190, #185, #218 ) ) ;
#234 = APPROVAL_PERSON_ORGANIZATION ( #119, #210, #192 ) ;
#235 = EDGE_CURVE ( 'NONE', #53, #53, #106, .T. ) ;
#236 = APPLICATION_CONTEXT ( 'configuration controlled 3d designs of mechanical parts and assemblies' ) ;
#237 = CARTESIAN_POINT ( 'NONE',  ( 2.793185071074506684E-13, 1.199807826129472128E-32, 80.00000000000000000 ) ) ;
#238 = FACE_OUTER_BOUND ( 'NONE', #84, .T. ) ;
#239 = LOCAL_TIME ( 13, 56, 47.00000000000000000, #73 ) ;
#240 = CARTESIAN_POINT ( 'NONE',  ( -8.615800363482471198E-31, 3.022015962063678276E-32, -2.467663300281945145E-16 ) ) ;
#241 = CARTESIAN_POINT ( 'NONE',  ( 4.189777606611760026E-14, 1.810959937564209565E-32, 12.00000000000000000 ) ) ;
#242 = DIRECTION ( 'NONE',  ( 4.275831445896958607E-31, 1.000000000000000000, 1.224646799147353207E-16 ) ) ;
#243 = LOCAL_TIME ( 13, 56, 47.00000000000000000, #211 ) ;
ENDSEC;
END-ISO-10303-21;
