ISO-10303-21;
HEADER;
FILE_DESCRIPTION (( 'STEP AP203' ),
    '1' );
FILE_NAME ('321708.step',
    '2021-12-02T12:56:46',
    ( '' ),
    ( '' ),
    'SwSTEP 2.0',
    'SolidWorks 2019',
    '' );
FILE_SCHEMA (( 'CONFIG_CONTROL_DESIGN' ));
ENDSEC;

DATA;
#1 = COORDINATED_UNIVERSAL_TIME_OFFSET ( 1, 0, .AHEAD. ) ;
#2 = ADVANCED_FACE ( 'NONE', ( #166 ), #18, .T. ) ;
#3 = DATE_AND_TIME ( #152, #62 ) ;
#4 = APPROVAL ( #132, 'UNSPECIFIED' ) ;
#5 = DIRECTION ( 'NONE',  ( 0.0000000000000000000, 1.000000000000000000, 0.0000000000000000000 ) ) ;
#6 = UNCERTAINTY_MEASURE_WITH_UNIT (LENGTH_MEASURE( 1.000000000000000082E-05 ), #185, 'distance_accuracy_value', 'NONE');
#7 = AXIS2_PLACEMENT_3D ( 'NONE', #144, #142, #124 ) ;
#8 = CARTESIAN_POINT ( 'NONE',  ( -8.594421206252988236E-31, 3.014517163150368934E-32, -2.461540066286208762E-16 ) ) ;
#9 = DIRECTION ( 'NONE',  ( -3.491481338843133355E-15, 1.224646799147353207E-16, -1.000000000000000000 ) ) ;
#10 = CARTESIAN_POINT ( 'NONE',  ( 4.189777606611760026E-14, 1.807210538107555441E-32, 12.00000000000000000 ) ) ;
#11 = DIRECTION ( 'NONE',  ( 3.995705278811651514E-31, 1.000000000000000000, 1.124691050296154849E-16 ) ) ;
#12 = CC_DESIGN_APPROVAL ( #4, ( #33 ) ) ;
#13 = COORDINATED_UNIVERSAL_TIME_OFFSET ( 1, 0, .AHEAD. ) ;
#14 =( NAMED_UNIT ( * ) SI_UNIT ( $, .STERADIAN. ) SOLID_ANGLE_UNIT ( ) );
#15 = CIRCLE ( 'NONE', #72, 1.600000000000000977 ) ;
#16 = ORIENTED_EDGE ( 'NONE', *, *, #238, .F. ) ;
#17 = DATE_AND_TIME ( #189, #127 ) ;
#18 = PLANE ( 'NONE',  #117 ) ;
#19 = VERTEX_POINT ( 'NONE', #241 ) ;
#20 = EDGE_LOOP ( 'NONE', ( #113 ) ) ;
#21 = PERSON_AND_ORGANIZATION_ROLE ( 'design_supplier' ) ;
#22 = APPROVAL_ROLE ( '' ) ;
#23 = PERSON_AND_ORGANIZATION ( #214, #234 ) ;
#24 = LOCAL_TIME ( 13, 56, 46.00000000000000000, #53 ) ;
#25 = ORIENTED_EDGE ( 'NONE', *, *, #95, .F. ) ;
#26 = DIRECTION ( 'NONE',  ( 4.275831445896957731E-31, 1.000000000000000000, 1.224646799147352961E-16 ) ) ;
#27 = DIRECTION ( 'NONE',  ( -3.491481338843133355E-15, 1.224646799147353207E-16, -1.000000000000000000 ) ) ;
#28 = AXIS2_PLACEMENT_3D ( 'NONE', #63, #176, #217 ) ;
#29 = FACE_OUTER_BOUND ( 'NONE', #112, .T. ) ;
#30 = CARTESIAN_POINT ( 'NONE',  ( -8.594421206252988236E-31, 3.014517163150368934E-32, -2.461540066286208762E-16 ) ) ;
#31 = CARTESIAN_POINT ( 'NONE',  ( -4.297210603126494118E-31, 1.507258581575184467E-32, -1.230770033143104381E-16 ) ) ;
#32 = DIRECTION ( 'NONE',  ( 0.0000000000000000000, 1.000000000000000000, 0.0000000000000000000 ) ) ;
#33 = PRODUCT_DEFINITION_FORMATION_WITH_SPECIFIED_SOURCE ( 'ANY', '', #99, .NOT_KNOWN. ) ;
#34 = CC_DESIGN_PERSON_AND_ORGANIZATION_ASSIGNMENT ( #74, #52, ( #99 ) ) ;
#35 = DATE_AND_TIME ( #70, #24 ) ;
#36 = VERTEX_POINT ( 'NONE', #37 ) ;
#37 = CARTESIAN_POINT ( 'NONE',  ( 4.189777606611760026E-14, 2.410000000000023679, 12.00000000000000000 ) ) ;
#38 = ORIENTED_EDGE ( 'NONE', *, *, #136, .T. ) ;
#39 = APPROVAL ( #89, 'UNSPECIFIED' ) ;
#40 = MECHANICAL_CONTEXT ( 'NONE', #141, 'mechanical' ) ;
#41 = LOCAL_TIME ( 13, 56, 46.00000000000000000, #13 ) ;
#42 = COORDINATED_UNIVERSAL_TIME_OFFSET ( 1, 0, .AHEAD. ) ;
#43 = EDGE_LOOP ( 'NONE', ( #80 ) ) ;
#44 = DIRECTION ( 'NONE',  ( -3.491481338843133355E-15, 1.224646799147353207E-16, -1.000000000000000000 ) ) ;
#45 = FACE_OUTER_BOUND ( 'NONE', #20, .T. ) ;
#46 = DIRECTION ( 'NONE',  ( -3.491481338843133355E-15, 1.224646799147353207E-16, -1.000000000000000000 ) ) ;
#47 = EDGE_CURVE ( 'NONE', #239, #239, #210, .T. ) ;
#48 = ADVANCED_BREP_SHAPE_REPRESENTATION ( '321708', ( #175, #90, #111 ), #114 ) ;
#49 = APPROVAL_PERSON_ORGANIZATION ( #55, #4, #109 ) ;
#50 = FACE_BOUND ( 'NONE', #101, .T. ) ;
#51 = FACE_OUTER_BOUND ( 'NONE', #60, .T. ) ;
#52 = PERSON_AND_ORGANIZATION_ROLE ( 'design_owner' ) ;
#53 = COORDINATED_UNIVERSAL_TIME_OFFSET ( 1, 0, .AHEAD. ) ;
#54 = CARTESIAN_POINT ( 'NONE',  ( 0.0000000000000000000, 2.010000000000023324, 0.0000000000000000000 ) ) ;
#55 = PERSON_AND_ORGANIZATION ( #214, #234 ) ;
#56 = CIRCLE ( 'NONE', #7, 1.999999999999992228 ) ;
#57 = ORIENTED_EDGE ( 'NONE', *, *, #170, .T. ) ;
#58 = CC_DESIGN_PERSON_AND_ORGANIZATION_ASSIGNMENT ( #115, #21, ( #33 ) ) ;
#59 = AXIS2_PLACEMENT_3D ( 'NONE', #120, #196, #103 ) ;
#60 = EDGE_LOOP ( 'NONE', ( #206 ) ) ;
#61 = EDGE_LOOP ( 'NONE', ( #148 ) ) ;
#62 = LOCAL_TIME ( 13, 56, 46.00000000000000000, #42 ) ;
#63 = CARTESIAN_POINT ( 'NONE',  ( 2.793185071074506684E-13, 1.199807826129472128E-32, 80.00000000000000000 ) ) ;
#64 = CC_DESIGN_DATE_AND_TIME_ASSIGNMENT ( #35, #227, ( #138 ) ) ;
#65 = CARTESIAN_POINT ( 'NONE',  ( 2.793185071074506684E-13, -9.797174393178826052E-15, 80.00000000000000000 ) ) ;
#66 = FACE_OUTER_BOUND ( 'NONE', #226, .T. ) ;
#67 = AXIS2_PLACEMENT_3D ( 'NONE', #69, #46, #11 ) ;
#68 = DIRECTION ( 'NONE',  ( -4.275831445896958607E-31, -1.000000000000000000, -1.224646799147353207E-16 ) ) ;
#69 = CARTESIAN_POINT ( 'NONE',  ( 1.396592535537252356E-15, -4.898587196589408761E-17, 0.3999999999999996891 ) ) ;
#70 = CALENDAR_DATE ( 2021, 2, 12 ) ;
#71 = DIRECTION ( 'NONE',  ( 0.0000000000000000000, 0.0000000000000000000, 1.000000000000000000 ) ) ;
#72 = AXIS2_PLACEMENT_3D ( 'NONE', #161, #232, #199 ) ;
#73 = ORIENTED_EDGE ( 'NONE', *, *, #170, .F. ) ;
#74 = PERSON_AND_ORGANIZATION ( #214, #234 ) ;
#75 = AXIS2_PLACEMENT_3D ( 'NONE', #31, #220, #84 ) ;
#76 = APPROVAL_DATE_TIME ( #212, #160 ) ;
#77 = DATE_TIME_ROLE ( 'classification_date' ) ;
#78 = CIRCLE ( 'NONE', #207, 2.410000000000025011 ) ;
#79 = CALENDAR_DATE ( 2021, 2, 12 ) ;
#80 = ORIENTED_EDGE ( 'NONE', *, *, #87, .T. ) ;
#81 = PLANE ( 'NONE',  #75 ) ;
#82 = PLANE ( 'NONE',  #59 ) ;
#83 = CARTESIAN_POINT ( 'NONE',  ( 0.0000000000000000000, 0.0000000000000000000, 0.0000000000000000000 ) ) ;
#84 = DIRECTION ( 'NONE',  ( 4.275831445896958607E-31, 1.000000000000000000, 1.224646799147353207E-16 ) ) ;
#85 = SECURITY_CLASSIFICATION ( '', '', #169 ) ;
#86 = DIRECTION ( 'NONE',  ( 0.0000000000000000000, 1.000000000000000000, 0.0000000000000000000 ) ) ;
#87 = EDGE_CURVE ( 'NONE', #19, #19, #56, .T. ) ;
#88 = VERTEX_POINT ( 'NONE', #204 ) ;
#89 = APPROVAL_STATUS ( 'not_yet_approved' ) ;
#90 = MANIFOLD_SOLID_BREP ( 'Corps-Déplacer/Copier1[2]', #122 ) ;
#91 = ADVANCED_FACE ( 'NONE', ( #218, #174 ), #215, .T. ) ;
#92 = CARTESIAN_POINT ( 'NONE',  ( 2.779219145719134403E-13, 1.999999999999991340, 79.60000000000000853 ) ) ;
#93 = ORIENTED_EDGE ( 'NONE', *, *, #87, .F. ) ;
#94 = PERSON_AND_ORGANIZATION_ROLE ( 'creator' ) ;
#95 = EDGE_CURVE ( 'NONE', #145, #145, #187, .T. ) ;
#96 = PERSON_AND_ORGANIZATION_ROLE ( 'classification_officer' ) ;
#97 = AXIS2_PLACEMENT_3D ( 'NONE', #102, #159, #230 ) ;
#98 = EDGE_LOOP ( 'NONE', ( #38 ) ) ;
#99 = PRODUCT ( '321708', '321708', '', ( #40 ) ) ;
#100 = AXIS2_PLACEMENT_3D ( 'NONE', #8, #27, #180 ) ;
#101 = EDGE_LOOP ( 'NONE', ( #57 ) ) ;
#102 = CARTESIAN_POINT ( 'NONE',  ( 0.0000000000000000000, 0.0000000000000000000, 0.0000000000000000000 ) ) ;
#103 = DIRECTION ( 'NONE',  ( -4.275831445896958607E-31, -1.000000000000000000, -1.224646799147353207E-16 ) ) ;
#104 = FACE_OUTER_BOUND ( 'NONE', #98, .T. ) ;
#105 = DIRECTION ( 'NONE',  ( -4.275831445896959482E-31, -1.000000000000000000, -1.224646799147353454E-16 ) ) ;
#106 = CARTESIAN_POINT ( 'NONE',  ( 2.779219145719134403E-13, -9.748188521212932624E-15, 79.60000000000000853 ) ) ;
#107 = CONICAL_SURFACE ( 'NONE', #123, 1.600000000000000977, 0.7853981633974512766 ) ;
#108 = CARTESIAN_POINT ( 'NONE',  ( 4.189777606611760026E-14, 2.410000000000023679, 12.00000000000000000 ) ) ;
#109 = APPROVAL_ROLE ( '' ) ;
#110 = CC_DESIGN_PERSON_AND_ORGANIZATION_ASSIGNMENT ( #154, #171, ( #33 ) ) ;
#111 = AXIS2_PLACEMENT_3D ( 'NONE', #222, #71, #149 ) ;
#112 = EDGE_LOOP ( 'NONE', ( #193 ) ) ;
#113 = ORIENTED_EDGE ( 'NONE', *, *, #238, .T. ) ;
#114 =( GEOMETRIC_REPRESENTATION_CONTEXT ( 3 ) GLOBAL_UNCERTAINTY_ASSIGNED_CONTEXT ( ( #6 ) ) GLOBAL_UNIT_ASSIGNED_CONTEXT ( ( #185, #128, #14 ) ) REPRESENTATION_CONTEXT ( 'NONE', 'WORKASPACE' ) );
#115 = PERSON_AND_ORGANIZATION ( #214, #234 ) ;
#116 = ORIENTED_EDGE ( 'NONE', *, *, #47, .T. ) ;
#117 = AXIS2_PLACEMENT_3D ( 'NONE', #10, #181, #68 ) ;
#118 = CC_DESIGN_DATE_AND_TIME_ASSIGNMENT ( #3, #77, ( #85 ) ) ;
#119 = CARTESIAN_POINT ( 'NONE',  ( 4.189777606611760026E-14, -1.469576158976823947E-15, 12.00000000000000000 ) ) ;
#120 = CARTESIAN_POINT ( 'NONE',  ( 4.189777606611760026E-14, 1.807210538107555441E-32, 12.00000000000000000 ) ) ;
#121 = DIRECTION ( 'NONE',  ( -3.491481338843133355E-15, 1.224646799147353207E-16, -1.000000000000000000 ) ) ;
#122 = CLOSED_SHELL ( 'NONE', ( #151, #2, #129, #182 ) ) ;
#123 = AXIS2_PLACEMENT_3D ( 'NONE', #65, #44, #125 ) ;
#124 = DIRECTION ( 'NONE',  ( 0.0000000000000000000, 1.000000000000000000, 0.0000000000000000000 ) ) ;
#125 = DIRECTION ( 'NONE',  ( 0.0000000000000000000, 1.000000000000000000, 0.0000000000000000000 ) ) ;
#126 = APPLICATION_PROTOCOL_DEFINITION ( 'international standard', 'config_control_design', 1994, #203 ) ;
#127 = LOCAL_TIME ( 13, 56, 46.00000000000000000, #237 ) ;
#128 =( NAMED_UNIT ( * ) PLANE_ANGLE_UNIT ( ) SI_UNIT ( $, .RADIAN. ) );
#129 = ADVANCED_FACE ( 'NONE', ( #29 ), #81, .T. ) ;
#130 = VERTEX_POINT ( 'NONE', #54 ) ;
#131 = CC_DESIGN_APPROVAL ( #39, ( #138 ) ) ;
#132 = APPROVAL_STATUS ( 'not_yet_approved' ) ;
#133 = ADVANCED_FACE ( 'NONE', ( #51, #50 ), #107, .T. ) ;
#134 = PERSON_AND_ORGANIZATION ( #214, #234 ) ;
#135 = AXIS2_PLACEMENT_3D ( 'NONE', #106, #216, #5 ) ;
#136 = EDGE_CURVE ( 'NONE', #36, #36, #78, .T. ) ;
#137 = EDGE_LOOP ( 'NONE', ( #25 ) ) ;
#138 = PRODUCT_DEFINITION ( 'UNKNOWN', '', #33, #173 ) ;
#139 = ORIENTED_EDGE ( 'NONE', *, *, #224, .F. ) ;
#140 = FACE_OUTER_BOUND ( 'NONE', #186, .T. ) ;
#141 = APPLICATION_CONTEXT ( 'configuration controlled 3d designs of mechanical parts and assemblies' ) ;
#142 = DIRECTION ( 'NONE',  ( -3.491481338843133355E-15, 1.224646799147353207E-16, -1.000000000000000000 ) ) ;
#143 = AXIS2_PLACEMENT_3D ( 'NONE', #83, #9, #26 ) ;
#144 = CARTESIAN_POINT ( 'NONE',  ( 4.437721952586531158E-14, -1.556543328552273038E-15, 12.71014083110329551 ) ) ;
#145 = VERTEX_POINT ( 'NONE', #146 ) ;
#146 = CARTESIAN_POINT ( 'NONE',  ( 1.396592535537253342E-15, 2.410000000000025011, 0.3999999999999999667 ) ) ;
#147 = APPLICATION_PROTOCOL_DEFINITION ( 'international standard', 'config_control_design', 1994, #141 ) ;
#148 = ORIENTED_EDGE ( 'NONE', *, *, #95, .T. ) ;
#149 = DIRECTION ( 'NONE',  ( 1.000000000000000000, 0.0000000000000000000, 0.0000000000000000000 ) ) ;
#150 = CONICAL_SURFACE ( 'NONE', #243, 2.010000000000023324, 0.7853981633974501664 ) ;
#151 = ADVANCED_FACE ( 'NONE', ( #104, #195 ), #179, .T. ) ;
#152 = CALENDAR_DATE ( 2021, 2, 12 ) ;
#153 = CC_DESIGN_APPROVAL ( #160, ( #85 ) ) ;
#154 = PERSON_AND_ORGANIZATION ( #214, #234 ) ;
#155 = PRODUCT_DEFINITION_SHAPE ( 'NONE', 'NONE',  #138 ) ;
#156 = EDGE_LOOP ( 'NONE', ( #213 ) ) ;
#157 = FACE_OUTER_BOUND ( 'NONE', #61, .T. ) ;
#158 = CIRCLE ( 'NONE', #100, 2.010000000000023324 ) ;
#159 = DIRECTION ( 'NONE',  ( -3.491481338843133355E-15, 1.224646799147353207E-16, -1.000000000000000000 ) ) ;
#160 = APPROVAL ( #172, 'UNSPECIFIED' ) ;
#161 = CARTESIAN_POINT ( 'NONE',  ( 2.793185071074506684E-13, -9.797174393178826052E-15, 80.00000000000000000 ) ) ;
#162 = DIRECTION ( 'NONE',  ( 3.491481338843133355E-15, -1.224646799147353207E-16, 1.000000000000000000 ) ) ;
#163 = APPROVAL_PERSON_ORGANIZATION ( #223, #39, #201 ) ;
#164 = FACE_BOUND ( 'NONE', #191, .T. ) ;
#165 = CARTESIAN_POINT ( 'NONE',  ( 4.189777606611760026E-14, -1.469576158976823947E-15, 12.00000000000000000 ) ) ;
#166 = FACE_OUTER_BOUND ( 'NONE', #156, .T. ) ;
#167 = DATE_AND_TIME ( #208, #41 ) ;
#168 = CLOSED_SHELL ( 'NONE', ( #228, #91, #178, #133, #211 ) ) ;
#169 = SECURITY_CLASSIFICATION_LEVEL ( 'unclassified' ) ;
#170 = EDGE_CURVE ( 'NONE', #88, #88, #15, .T. ) ;
#171 = PERSON_AND_ORGANIZATION_ROLE ( 'creator' ) ;
#172 = APPROVAL_STATUS ( 'not_yet_approved' ) ;
#173 = DESIGN_CONTEXT ( 'detailed design', #203, 'design' ) ;
#174 = FACE_OUTER_BOUND ( 'NONE', #229, .T. ) ;
#175 = MANIFOLD_SOLID_BREP ( 'Corps-Déplacer/Copier1[1]', #168 ) ;
#176 = DIRECTION ( 'NONE',  ( -3.491481338843133355E-15, 1.224646799147353207E-16, -1.000000000000000000 ) ) ;
#177 = AXIS2_PLACEMENT_3D ( 'NONE', #197, #231, #236 ) ;
#178 = ADVANCED_FACE ( 'NONE', ( #200, #66 ), #219, .T. ) ;
#179 = CYLINDRICAL_SURFACE ( 'NONE', #143, 2.410000000000025011 ) ;
#180 = DIRECTION ( 'NONE',  ( 4.275831445896959482E-31, 1.000000000000000000, 1.224646799147353454E-16 ) ) ;
#181 = DIRECTION ( 'NONE',  ( 3.491481338843133355E-15, -1.224646799147353207E-16, 1.000000000000000000 ) ) ;
#182 = ADVANCED_FACE ( 'NONE', ( #157, #164 ), #150, .T. ) ;
#183 = AXIS2_PLACEMENT_3D ( 'NONE', #165, #225, #32 ) ;
#184 = APPROVAL_DATE_TIME ( #17, #39 ) ;
#185 =( LENGTH_UNIT ( ) NAMED_UNIT ( * ) SI_UNIT ( .MILLI., .METRE. ) );
#186 = EDGE_LOOP ( 'NONE', ( #73 ) ) ;
#187 = CIRCLE ( 'NONE', #67, 2.410000000000025011 ) ;
#188 = PRODUCT_RELATED_PRODUCT_CATEGORY ( 'detail', '', ( #99 ) ) ;
#189 = CALENDAR_DATE ( 2021, 2, 12 ) ;
#190 = EDGE_LOOP ( 'NONE', ( #93 ) ) ;
#191 = EDGE_LOOP ( 'NONE', ( #139 ) ) ;
#192 = SHAPE_DEFINITION_REPRESENTATION ( #155, #48 ) ;
#193 = ORIENTED_EDGE ( 'NONE', *, *, #224, .T. ) ;
#194 = APPROVAL_PERSON_ORGANIZATION ( #23, #160, #22 ) ;
#195 = FACE_OUTER_BOUND ( 'NONE', #137, .T. ) ;
#196 = DIRECTION ( 'NONE',  ( 3.491481338843133355E-15, -1.224646799147353207E-16, 1.000000000000000000 ) ) ;
#197 = CARTESIAN_POINT ( 'NONE',  ( 4.189777606611760026E-14, -1.469576158976823947E-15, 12.00000000000000000 ) ) ;
#198 = CIRCLE ( 'NONE', #183, 2.410000000000025011 ) ;
#199 = DIRECTION ( 'NONE',  ( 0.0000000000000000000, 1.000000000000000000, 0.0000000000000000000 ) ) ;
#200 = FACE_OUTER_BOUND ( 'NONE', #190, .T. ) ;
#201 = APPROVAL_ROLE ( '' ) ;
#202 = PERSON_AND_ORGANIZATION ( #214, #234 ) ;
#203 = APPLICATION_CONTEXT ( 'configuration controlled 3d designs of mechanical parts and assemblies' ) ;
#204 = CARTESIAN_POINT ( 'NONE',  ( 2.793185071074506684E-13, 1.599999999999991207, 80.00000000000000000 ) ) ;
#205 = CC_DESIGN_PERSON_AND_ORGANIZATION_ASSIGNMENT ( #202, #94, ( #138 ) ) ;
#206 = ORIENTED_EDGE ( 'NONE', *, *, #47, .F. ) ;
#207 = AXIS2_PLACEMENT_3D ( 'NONE', #119, #121, #86 ) ;
#208 = CALENDAR_DATE ( 2021, 2, 12 ) ;
#209 = CC_DESIGN_PERSON_AND_ORGANIZATION_ASSIGNMENT ( #134, #96, ( #85 ) ) ;
#210 = CIRCLE ( 'NONE', #135, 2.000000000000000888 ) ;
#211 = ADVANCED_FACE ( 'NONE', ( #140 ), #233, .F. ) ;
#212 = DATE_AND_TIME ( #79, #240 ) ;
#213 = ORIENTED_EDGE ( 'NONE', *, *, #136, .F. ) ;
#214 = PERSON ( 'UNSPECIFIED', 'UNSPECIFIED', 'UNSPECIFIED', ('UNSPECIFIED'), ('UNSPECIFIED'), ('UNSPECIFIED') ) ;
#215 = CONICAL_SURFACE ( 'NONE', #177, 2.410000000000025011, 0.5235987755982995928 ) ;
#216 = DIRECTION ( 'NONE',  ( -3.491481338843133355E-15, 1.224646799147353207E-16, -1.000000000000000000 ) ) ;
#217 = DIRECTION ( 'NONE',  ( 4.275831445896958607E-31, 1.000000000000000000, 1.224646799147353207E-16 ) ) ;
#218 = FACE_BOUND ( 'NONE', #43, .T. ) ;
#219 = CYLINDRICAL_SURFACE ( 'NONE', #97, 1.999999999999996669 ) ;
#220 = DIRECTION ( 'NONE',  ( -3.491481338843133355E-15, 1.224646799147353207E-16, -1.000000000000000000 ) ) ;
#221 = VERTEX_POINT ( 'NONE', #108 ) ;
#222 = CARTESIAN_POINT ( 'NONE',  ( 0.0000000000000000000, 0.0000000000000000000, 0.0000000000000000000 ) ) ;
#223 = PERSON_AND_ORGANIZATION ( #214, #234 ) ;
#224 = EDGE_CURVE ( 'NONE', #130, #130, #158, .T. ) ;
#225 = DIRECTION ( 'NONE',  ( -3.491481338843133355E-15, 1.224646799147353207E-16, -1.000000000000000000 ) ) ;
#226 = EDGE_LOOP ( 'NONE', ( #116 ) ) ;
#227 = DATE_TIME_ROLE ( 'creation_date' ) ;
#228 = ADVANCED_FACE ( 'NONE', ( #45 ), #82, .F. ) ;
#229 = EDGE_LOOP ( 'NONE', ( #16 ) ) ;
#230 = DIRECTION ( 'NONE',  ( 4.275831445896958607E-31, 1.000000000000000000, 1.224646799147353207E-16 ) ) ;
#231 = DIRECTION ( 'NONE',  ( -3.491481338843133355E-15, 1.224646799147353207E-16, -1.000000000000000000 ) ) ;
#232 = DIRECTION ( 'NONE',  ( -3.491481338843133355E-15, 1.224646799147353207E-16, -1.000000000000000000 ) ) ;
#233 = PLANE ( 'NONE',  #28 ) ;
#234 = ORGANIZATION ( 'UNSPECIFIED', 'UNSPECIFIED', '' ) ;
#235 = CC_DESIGN_SECURITY_CLASSIFICATION ( #85, ( #33 ) ) ;
#236 = DIRECTION ( 'NONE',  ( 0.0000000000000000000, 1.000000000000000000, 0.0000000000000000000 ) ) ;
#237 = COORDINATED_UNIVERSAL_TIME_OFFSET ( 1, 0, .AHEAD. ) ;
#238 = EDGE_CURVE ( 'NONE', #221, #221, #198, .T. ) ;
#239 = VERTEX_POINT ( 'NONE', #92 ) ;
#240 = LOCAL_TIME ( 13, 56, 46.00000000000000000, #1 ) ;
#241 = CARTESIAN_POINT ( 'NONE',  ( 4.437721952586531158E-14, 1.999999999999990452, 12.71014083110329551 ) ) ;
#242 = APPROVAL_DATE_TIME ( #167, #4 ) ;
#243 = AXIS2_PLACEMENT_3D ( 'NONE', #30, #162, #105 ) ;
ENDSEC;
END-ISO-10303-21;
