ISO-10303-21;
HEADER;
FILE_DESCRIPTION (( 'STEP AP203' ),
    '1' );
FILE_NAME ('321707.step',
    '2021-12-02T12:56:45',
    ( '' ),
    ( '' ),
    'SwSTEP 2.0',
    'SolidWorks 2019',
    '' );
FILE_SCHEMA (( 'CONFIG_CONTROL_DESIGN' ));
ENDSEC;

DATA;
#1 = APPROVAL_STATUS ( 'not_yet_approved' ) ;
#2 = AXIS2_PLACEMENT_3D ( 'NONE', #31, #87, #67 ) ;
#3 = CONICAL_SURFACE ( 'NONE', #166, 2.005000000000023874, 0.7853981633974499443 ) ;
#4 = ORIENTED_EDGE ( 'NONE', *, *, #170, .F. ) ;
#5 = CARTESIAN_POINT ( 'NONE',  ( 2.793185071074506684E-13, -9.797174393178826052E-15, 80.00000000000000000 ) ) ;
#6 = SECURITY_CLASSIFICATION_LEVEL ( 'unclassified' ) ;
#7 = FACE_OUTER_BOUND ( 'NONE', #115, .T. ) ;
#8 = AXIS2_PLACEMENT_3D ( 'NONE', #12, #106, #159 ) ;
#9 = DATE_TIME_ROLE ( 'classification_date' ) ;
#10 = CC_DESIGN_DATE_AND_TIME_ASSIGNMENT ( #155, #9, ( #91 ) ) ;
#11 = FACE_OUTER_BOUND ( 'NONE', #133, .T. ) ;
#12 = CARTESIAN_POINT ( 'NONE',  ( 1.396592535537253145E-15, -4.898587196589411843E-17, 0.3999999999999999112 ) ) ;
#13 = PERSON ( 'UNSPECIFIED', 'UNSPECIFIED', 'UNSPECIFIED', ('UNSPECIFIED'), ('UNSPECIFIED'), ('UNSPECIFIED') ) ;
#14 = CARTESIAN_POINT ( 'NONE',  ( 4.189777606611760026E-14, 1.803461138650900770E-32, 12.00000000000000000 ) ) ;
#15 = AXIS2_PLACEMENT_3D ( 'NONE', #221, #48, #120 ) ;
#16 = CARTESIAN_POINT ( 'NONE',  ( 2.793185071074506684E-13, 1.599999999999991207, 80.00000000000000000 ) ) ;
#17 = APPROVAL ( #1, 'UNSPECIFIED' ) ;
#18 = CARTESIAN_POINT ( 'NONE',  ( 4.189777606611760026E-14, 2.405000000000023785, 12.00000000000000000 ) ) ;
#19 = ADVANCED_FACE ( 'NONE', ( #95 ), #24, .F. ) ;
#20 = APPLICATION_PROTOCOL_DEFINITION ( 'international standard', 'config_control_design', 1994, #103 ) ;
#21 =( NAMED_UNIT ( * ) PLANE_ANGLE_UNIT ( ) SI_UNIT ( $, .RADIAN. ) );
#22 = ORIENTED_EDGE ( 'NONE', *, *, #164, .T. ) ;
#23 = ORIENTED_EDGE ( 'NONE', *, *, #170, .T. ) ;
#24 = PLANE ( 'NONE',  #223 ) ;
#25 = AXIS2_PLACEMENT_3D ( 'NONE', #140, #85, #157 ) ;
#26 = FACE_OUTER_BOUND ( 'NONE', #153, .T. ) ;
#27 = PERSON_AND_ORGANIZATION ( #13, #61 ) ;
#28 = FACE_BOUND ( 'NONE', #127, .T. ) ;
#29 = CIRCLE ( 'NONE', #39, 1.600000000000000977 ) ;
#30 = PLANE ( 'NONE',  #241 ) ;
#31 = CARTESIAN_POINT ( 'NONE',  ( 2.793185071074506684E-13, -9.797174393178826052E-15, 80.00000000000000000 ) ) ;
#32 = ADVANCED_FACE ( 'NONE', ( #158, #84 ), #43, .T. ) ;
#33 = PERSON_AND_ORGANIZATION ( #13, #61 ) ;
#34 = DIRECTION ( 'NONE',  ( 1.000000000000000000, 0.0000000000000000000, 0.0000000000000000000 ) ) ;
#35 = PRODUCT_RELATED_PRODUCT_CATEGORY ( 'detail', '', ( #243 ) ) ;
#36 = CARTESIAN_POINT ( 'NONE',  ( -4.286521024511751761E-31, 1.503509182118530069E-32, -1.227708416145236190E-16 ) ) ;
#37 = CC_DESIGN_PERSON_AND_ORGANIZATION_ASSIGNMENT ( #195, #214, ( #233 ) ) ;
#38 = PERSON_AND_ORGANIZATION_ROLE ( 'creator' ) ;
#39 = AXIS2_PLACEMENT_3D ( 'NONE', #5, #98, #237 ) ;
#40 = PERSON_AND_ORGANIZATION ( #13, #61 ) ;
#41 = EDGE_LOOP ( 'NONE', ( #114 ) ) ;
#42 = DESIGN_CONTEXT ( 'detailed design', #66, 'design' ) ;
#43 = CONICAL_SURFACE ( 'NONE', #2, 1.600000000000000977, 0.7853981633974512766 ) ;
#44 = CARTESIAN_POINT ( 'NONE',  ( 4.189777606611760026E-14, -1.469576158976823947E-15, 12.00000000000000000 ) ) ;
#45 = CC_DESIGN_PERSON_AND_ORGANIZATION_ASSIGNMENT ( #33, #38, ( #204 ) ) ;
#46 = PERSON_AND_ORGANIZATION ( #13, #61 ) ;
#47 = DIRECTION ( 'NONE',  ( -4.275831445896958607E-31, -1.000000000000000000, -1.224646799147353207E-16 ) ) ;
#48 = DIRECTION ( 'NONE',  ( 3.491481338843133355E-15, -1.224646799147353207E-16, 1.000000000000000000 ) ) ;
#49 = DIRECTION ( 'NONE',  ( 0.0000000000000000000, 1.000000000000000000, 0.0000000000000000000 ) ) ;
#50 = CARTESIAN_POINT ( 'NONE',  ( 4.189777606611760026E-14, -1.469576158976823947E-15, 12.00000000000000000 ) ) ;
#51 = DATE_AND_TIME ( #108, #70 ) ;
#52 = AXIS2_PLACEMENT_3D ( 'NONE', #44, #225, #49 ) ;
#53 = AXIS2_PLACEMENT_3D ( 'NONE', #71, #178, #121 ) ;
#54 = MECHANICAL_CONTEXT ( 'NONE', #103, 'mechanical' ) ;
#55 = APPROVAL_DATE_TIME ( #51, #17 ) ;
#56 = APPROVAL ( #93, 'UNSPECIFIED' ) ;
#57 = EDGE_LOOP ( 'NONE', ( #229 ) ) ;
#58 = COORDINATED_UNIVERSAL_TIME_OFFSET ( 1, 0, .AHEAD. ) ;
#59 = EDGE_CURVE ( 'NONE', #183, #183, #210, .T. ) ;
#60 = CARTESIAN_POINT ( 'NONE',  ( 0.0000000000000000000, 2.005000000000023874, 0.0000000000000000000 ) ) ;
#61 = ORGANIZATION ( 'UNSPECIFIED', 'UNSPECIFIED', '' ) ;
#62 = ADVANCED_FACE ( 'NONE', ( #201, #117 ), #139, .T. ) ;
#63 = EDGE_LOOP ( 'NONE', ( #132 ) ) ;
#64 = CARTESIAN_POINT ( 'NONE',  ( 4.434698241050253023E-14, -1.555482753313547994E-15, 12.70148057706544975 ) ) ;
#65 =( GEOMETRIC_REPRESENTATION_CONTEXT ( 3 ) GLOBAL_UNCERTAINTY_ASSIGNED_CONTEXT ( ( #100 ) ) GLOBAL_UNIT_ASSIGNED_CONTEXT ( ( #185, #21, #169 ) ) REPRESENTATION_CONTEXT ( 'NONE', 'WORKASPACE' ) );
#66 = APPLICATION_CONTEXT ( 'configuration controlled 3d designs of mechanical parts and assemblies' ) ;
#67 = DIRECTION ( 'NONE',  ( 0.0000000000000000000, 1.000000000000000000, 0.0000000000000000000 ) ) ;
#68 = PLANE ( 'NONE',  #15 ) ;
#69 = DIRECTION ( 'NONE',  ( 0.0000000000000000000, 1.000000000000000000, 0.0000000000000000000 ) ) ;
#70 = LOCAL_TIME ( 13, 56, 45.00000000000000000, #145 ) ;
#71 = CARTESIAN_POINT ( 'NONE',  ( 0.0000000000000000000, 0.0000000000000000000, 0.0000000000000000000 ) ) ;
#72 = DIRECTION ( 'NONE',  ( 0.0000000000000000000, 0.0000000000000000000, 1.000000000000000000 ) ) ;
#73 = CARTESIAN_POINT ( 'NONE',  ( 1.396592535537254131E-15, 2.405000000000025118, 0.4000000000000001887 ) ) ;
#74 = EDGE_CURVE ( 'NONE', #89, #89, #203, .T. ) ;
#75 = CC_DESIGN_APPROVAL ( #56, ( #233 ) ) ;
#76 = DATE_AND_TIME ( #123, #116 ) ;
#77 = APPROVAL_ROLE ( '' ) ;
#78 = DIRECTION ( 'NONE',  ( -3.491481338843133355E-15, 1.224646799147353207E-16, -1.000000000000000000 ) ) ;
#79 = EDGE_LOOP ( 'NONE', ( #213 ) ) ;
#80 = CLOSED_SHELL ( 'NONE', ( #187, #152, #227, #181 ) ) ;
#81 = MANIFOLD_SOLID_BREP ( 'Corps-Déplacer/Copier1[2]', #80 ) ;
#82 = CARTESIAN_POINT ( 'NONE',  ( -8.573042049023503521E-31, 3.007018364237060138E-32, -2.455416832290472379E-16 ) ) ;
#83 = PERSON_AND_ORGANIZATION_ROLE ( 'classification_officer' ) ;
#84 = FACE_BOUND ( 'NONE', #63, .T. ) ;
#85 = DIRECTION ( 'NONE',  ( -3.491481338843133355E-15, 1.224646799147353207E-16, -1.000000000000000000 ) ) ;
#86 = CARTESIAN_POINT ( 'NONE',  ( 4.189777606611760026E-14, -1.469576158976823947E-15, 12.00000000000000000 ) ) ;
#87 = DIRECTION ( 'NONE',  ( -3.491481338843133355E-15, 1.224646799147353207E-16, -1.000000000000000000 ) ) ;
#88 = LOCAL_TIME ( 13, 56, 45.00000000000000000, #177 ) ;
#89 = VERTEX_POINT ( 'NONE', #161 ) ;
#90 = COORDINATED_UNIVERSAL_TIME_OFFSET ( 1, 0, .AHEAD. ) ;
#91 = SECURITY_CLASSIFICATION ( '', '', #6 ) ;
#92 = EDGE_LOOP ( 'NONE', ( #4 ) ) ;
#93 = APPROVAL_STATUS ( 'not_yet_approved' ) ;
#94 = ORIENTED_EDGE ( 'NONE', *, *, #59, .T. ) ;
#95 = FACE_OUTER_BOUND ( 'NONE', #41, .T. ) ;
#96 = CC_DESIGN_APPROVAL ( #147, ( #91 ) ) ;
#97 = DIRECTION ( 'NONE',  ( -3.491481338843133355E-15, 1.224646799147353207E-16, -1.000000000000000000 ) ) ;
#98 = DIRECTION ( 'NONE',  ( -3.491481338843133355E-15, 1.224646799147353207E-16, -1.000000000000000000 ) ) ;
#99 = SHAPE_DEFINITION_REPRESENTATION ( #146, #136 ) ;
#100 = UNCERTAINTY_MEASURE_WITH_UNIT (LENGTH_MEASURE( 1.000000000000000082E-05 ), #185, 'distance_accuracy_value', 'NONE');
#101 = CYLINDRICAL_SURFACE ( 'NONE', #53, 2.405000000000025118 ) ;
#102 = CIRCLE ( 'NONE', #173, 2.405000000000025118 ) ;
#103 = APPLICATION_CONTEXT ( 'configuration controlled 3d designs of mechanical parts and assemblies' ) ;
#104 = CC_DESIGN_SECURITY_CLASSIFICATION ( #91, ( #233 ) ) ;
#105 = PLANE ( 'NONE',  #111 ) ;
#106 = DIRECTION ( 'NONE',  ( -3.491481338843133355E-15, 1.224646799147353207E-16, -1.000000000000000000 ) ) ;
#107 = VERTEX_POINT ( 'NONE', #16 ) ;
#108 = CALENDAR_DATE ( 2021, 2, 12 ) ;
#109 = EDGE_CURVE ( 'NONE', #230, #230, #165, .T. ) ;
#110 = DATE_AND_TIME ( #128, #144 ) ;
#111 = AXIS2_PLACEMENT_3D ( 'NONE', #14, #122, #47 ) ;
#112 = CALENDAR_DATE ( 2021, 2, 12 ) ;
#113 = EDGE_LOOP ( 'NONE', ( #151 ) ) ;
#114 = ORIENTED_EDGE ( 'NONE', *, *, #175, .F. ) ;
#115 = EDGE_LOOP ( 'NONE', ( #94 ) ) ;
#116 = LOCAL_TIME ( 13, 56, 45.00000000000000000, #90 ) ;
#117 = FACE_OUTER_BOUND ( 'NONE', #92, .T. ) ;
#118 = CALENDAR_DATE ( 2021, 2, 12 ) ;
#119 = DIRECTION ( 'NONE',  ( 0.0000000000000000000, 1.000000000000000000, 0.0000000000000000000 ) ) ;
#120 = DIRECTION ( 'NONE',  ( -4.275831445896958607E-31, -1.000000000000000000, -1.224646799147353207E-16 ) ) ;
#121 = DIRECTION ( 'NONE',  ( 4.275831445896958607E-31, 1.000000000000000000, 1.224646799147353454E-16 ) ) ;
#122 = DIRECTION ( 'NONE',  ( 3.491481338843133355E-15, -1.224646799147353207E-16, 1.000000000000000000 ) ) ;
#123 = CALENDAR_DATE ( 2021, 2, 12 ) ;
#124 = PERSON_AND_ORGANIZATION ( #13, #61 ) ;
#125 = DATE_TIME_ROLE ( 'creation_date' ) ;
#126 = AXIS2_PLACEMENT_3D ( 'NONE', #82, #154, #135 ) ;
#127 = EDGE_LOOP ( 'NONE', ( #235 ) ) ;
#128 = CALENDAR_DATE ( 2021, 2, 12 ) ;
#129 = EDGE_LOOP ( 'NONE', ( #232 ) ) ;
#130 = VERTEX_POINT ( 'NONE', #182 ) ;
#131 = CLOSED_SHELL ( 'NONE', ( #222, #62, #202, #32, #19 ) ) ;
#132 = ORIENTED_EDGE ( 'NONE', *, *, #175, .T. ) ;
#133 = EDGE_LOOP ( 'NONE', ( #22 ) ) ;
#134 = CARTESIAN_POINT ( 'NONE',  ( -8.573042049023503521E-31, 3.007018364237060138E-32, -2.455416832290472379E-16 ) ) ;
#135 = DIRECTION ( 'NONE',  ( 4.275831445896958607E-31, 1.000000000000000000, 1.224646799147353207E-16 ) ) ;
#136 = ADVANCED_BREP_SHAPE_REPRESENTATION ( '321707', ( #162, #81, #160 ), #65 ) ;
#137 = DIRECTION ( 'NONE',  ( 0.0000000000000000000, 1.000000000000000000, 0.0000000000000000000 ) ) ;
#138 = DIRECTION ( 'NONE',  ( -3.491481338843133355E-15, 1.224646799147353207E-16, -1.000000000000000000 ) ) ;
#139 = CONICAL_SURFACE ( 'NONE', #217, 2.405000000000025118, 0.5235987755983002589 ) ;
#140 = CARTESIAN_POINT ( 'NONE',  ( 0.0000000000000000000, 0.0000000000000000000, 0.0000000000000000000 ) ) ;
#141 = VERTEX_POINT ( 'NONE', #73 ) ;
#142 = EDGE_CURVE ( 'NONE', #141, #141, #188, .T. ) ;
#143 = CIRCLE ( 'NONE', #199, 2.000000000000000888 ) ;
#144 = LOCAL_TIME ( 13, 56, 45.00000000000000000, #58 ) ;
#145 = COORDINATED_UNIVERSAL_TIME_OFFSET ( 1, 0, .AHEAD. ) ;
#146 = PRODUCT_DEFINITION_SHAPE ( 'NONE', 'NONE',  #204 ) ;
#147 = APPROVAL ( #191, 'UNSPECIFIED' ) ;
#148 = CARTESIAN_POINT ( 'NONE',  ( 0.0000000000000000000, 0.0000000000000000000, 0.0000000000000000000 ) ) ;
#149 = DATE_AND_TIME ( #118, #228 ) ;
#150 = CC_DESIGN_APPROVAL ( #17, ( #204 ) ) ;
#151 = ORIENTED_EDGE ( 'NONE', *, *, #109, .T. ) ;
#152 = ADVANCED_FACE ( 'NONE', ( #26 ), #105, .T. ) ;
#153 = EDGE_LOOP ( 'NONE', ( #216 ) ) ;
#154 = DIRECTION ( 'NONE',  ( -3.491481338843133355E-15, 1.224646799147353207E-16, -1.000000000000000000 ) ) ;
#155 = DATE_AND_TIME ( #112, #88 ) ;
#156 = DIRECTION ( 'NONE',  ( -3.491481338843133355E-15, 1.224646799147353207E-16, -1.000000000000000000 ) ) ;
#157 = DIRECTION ( 'NONE',  ( 4.275831445896958607E-31, 1.000000000000000000, 1.224646799147353207E-16 ) ) ;
#158 = FACE_OUTER_BOUND ( 'NONE', #129, .T. ) ;
#159 = DIRECTION ( 'NONE',  ( 4.004012358393379635E-31, 1.000000000000000000, 1.127029285327955338E-16 ) ) ;
#160 = AXIS2_PLACEMENT_3D ( 'NONE', #148, #72, #34 ) ;
#161 = CARTESIAN_POINT ( 'NONE',  ( 4.434698241050253023E-14, 1.999999999999990452, 12.70148057706544975 ) ) ;
#162 = MANIFOLD_SOLID_BREP ( 'Corps-Déplacer/Copier1[1]', #131 ) ;
#163 = APPLICATION_PROTOCOL_DEFINITION ( 'international standard', 'config_control_design', 1994, #66 ) ;
#164 = EDGE_CURVE ( 'NONE', #208, #208, #143, .T. ) ;
#165 = CIRCLE ( 'NONE', #126, 2.005000000000023874 ) ;
#166 = AXIS2_PLACEMENT_3D ( 'NONE', #134, #242, #224 ) ;
#167 = CC_DESIGN_DATE_AND_TIME_ASSIGNMENT ( #76, #125, ( #204 ) ) ;
#168 = DIRECTION ( 'NONE',  ( 4.275831445896958607E-31, 1.000000000000000000, 1.224646799147353207E-16 ) ) ;
#169 =( NAMED_UNIT ( * ) SI_UNIT ( $, .STERADIAN. ) SOLID_ANGLE_UNIT ( ) );
#170 = EDGE_CURVE ( 'NONE', #130, #130, #102, .T. ) ;
#171 = EDGE_LOOP ( 'NONE', ( #194 ) ) ;
#172 = AXIS2_PLACEMENT_3D ( 'NONE', #64, #196, #240 ) ;
#173 = AXIS2_PLACEMENT_3D ( 'NONE', #86, #198, #137 ) ;
#174 = CARTESIAN_POINT ( 'NONE',  ( 2.779219145719134403E-13, -9.748188521212932624E-15, 79.60000000000000853 ) ) ;
#175 = EDGE_CURVE ( 'NONE', #107, #107, #29, .T. ) ;
#176 = FACE_OUTER_BOUND ( 'NONE', #192, .T. ) ;
#177 = COORDINATED_UNIVERSAL_TIME_OFFSET ( 1, 0, .AHEAD. ) ;
#178 = DIRECTION ( 'NONE',  ( -3.491481338843133355E-15, 1.224646799147353207E-16, -1.000000000000000000 ) ) ;
#179 = FACE_OUTER_BOUND ( 'NONE', #171, .T. ) ;
#180 = CYLINDRICAL_SURFACE ( 'NONE', #25, 1.999999999999996669 ) ;
#181 = ADVANCED_FACE ( 'NONE', ( #219, #28 ), #3, .T. ) ;
#182 = CARTESIAN_POINT ( 'NONE',  ( 4.189777606611760026E-14, 2.405000000000023785, 12.00000000000000000 ) ) ;
#183 = VERTEX_POINT ( 'NONE', #18 ) ;
#184 = CARTESIAN_POINT ( 'NONE',  ( 2.779219145719134403E-13, 1.999999999999991340, 79.60000000000000853 ) ) ;
#185 =( LENGTH_UNIT ( ) NAMED_UNIT ( * ) SI_UNIT ( .MILLI., .METRE. ) );
#186 = APPROVAL_PERSON_ORGANIZATION ( #205, #17, #231 ) ;
#187 = ADVANCED_FACE ( 'NONE', ( #7, #179 ), #101, .T. ) ;
#188 = CIRCLE ( 'NONE', #8, 2.405000000000025118 ) ;
#189 = APPROVAL_DATE_TIME ( #110, #56 ) ;
#190 = EDGE_LOOP ( 'NONE', ( #23 ) ) ;
#191 = APPROVAL_STATUS ( 'not_yet_approved' ) ;
#192 = EDGE_LOOP ( 'NONE', ( #209 ) ) ;
#193 = APPROVAL_PERSON_ORGANIZATION ( #27, #147, #215 ) ;
#194 = ORIENTED_EDGE ( 'NONE', *, *, #142, .F. ) ;
#195 = PERSON_AND_ORGANIZATION ( #13, #61 ) ;
#196 = DIRECTION ( 'NONE',  ( -3.491481338843133355E-15, 1.224646799147353207E-16, -1.000000000000000000 ) ) ;
#197 = APPROVAL_DATE_TIME ( #149, #147 ) ;
#198 = DIRECTION ( 'NONE',  ( -3.491481338843133355E-15, 1.224646799147353207E-16, -1.000000000000000000 ) ) ;
#199 = AXIS2_PLACEMENT_3D ( 'NONE', #174, #138, #119 ) ;
#200 = FACE_OUTER_BOUND ( 'NONE', #113, .T. ) ;
#201 = FACE_BOUND ( 'NONE', #57, .T. ) ;
#202 = ADVANCED_FACE ( 'NONE', ( #176, #11 ), #180, .T. ) ;
#203 = CIRCLE ( 'NONE', #172, 1.999999999999992228 ) ;
#204 = PRODUCT_DEFINITION ( 'UNKNOWN', '', #233, #42 ) ;
#205 = PERSON_AND_ORGANIZATION ( #13, #61 ) ;
#206 = PERSON_AND_ORGANIZATION ( #13, #61 ) ;
#207 = CC_DESIGN_PERSON_AND_ORGANIZATION_ASSIGNMENT ( #40, #83, ( #91 ) ) ;
#208 = VERTEX_POINT ( 'NONE', #184 ) ;
#209 = ORIENTED_EDGE ( 'NONE', *, *, #74, .F. ) ;
#210 = CIRCLE ( 'NONE', #52, 2.405000000000025118 ) ;
#211 = CC_DESIGN_PERSON_AND_ORGANIZATION_ASSIGNMENT ( #124, #226, ( #243 ) ) ;
#212 = PERSON_AND_ORGANIZATION_ROLE ( 'design_supplier' ) ;
#213 = ORIENTED_EDGE ( 'NONE', *, *, #142, .T. ) ;
#214 = PERSON_AND_ORGANIZATION_ROLE ( 'creator' ) ;
#215 = APPROVAL_ROLE ( '' ) ;
#216 = ORIENTED_EDGE ( 'NONE', *, *, #59, .F. ) ;
#217 = AXIS2_PLACEMENT_3D ( 'NONE', #50, #97, #69 ) ;
#218 = APPROVAL_PERSON_ORGANIZATION ( #206, #56, #77 ) ;
#219 = FACE_OUTER_BOUND ( 'NONE', #79, .T. ) ;
#220 = CARTESIAN_POINT ( 'NONE',  ( 2.793185071074506684E-13, 1.199807826129472128E-32, 80.00000000000000000 ) ) ;
#221 = CARTESIAN_POINT ( 'NONE',  ( 4.189777606611760026E-14, 1.803461138650900770E-32, 12.00000000000000000 ) ) ;
#222 = ADVANCED_FACE ( 'NONE', ( #239 ), #68, .F. ) ;
#223 = AXIS2_PLACEMENT_3D ( 'NONE', #220, #156, #238 ) ;
#224 = DIRECTION ( 'NONE',  ( -4.275831445896958607E-31, -1.000000000000000000, -1.224646799147353207E-16 ) ) ;
#225 = DIRECTION ( 'NONE',  ( -3.491481338843133355E-15, 1.224646799147353207E-16, -1.000000000000000000 ) ) ;
#226 = PERSON_AND_ORGANIZATION_ROLE ( 'design_owner' ) ;
#227 = ADVANCED_FACE ( 'NONE', ( #200 ), #30, .T. ) ;
#228 = LOCAL_TIME ( 13, 56, 45.00000000000000000, #234 ) ;
#229 = ORIENTED_EDGE ( 'NONE', *, *, #74, .T. ) ;
#230 = VERTEX_POINT ( 'NONE', #60 ) ;
#231 = APPROVAL_ROLE ( '' ) ;
#232 = ORIENTED_EDGE ( 'NONE', *, *, #164, .F. ) ;
#233 = PRODUCT_DEFINITION_FORMATION_WITH_SPECIFIED_SOURCE ( 'ANY', '', #243, .NOT_KNOWN. ) ;
#234 = COORDINATED_UNIVERSAL_TIME_OFFSET ( 1, 0, .AHEAD. ) ;
#235 = ORIENTED_EDGE ( 'NONE', *, *, #109, .F. ) ;
#236 = CC_DESIGN_PERSON_AND_ORGANIZATION_ASSIGNMENT ( #46, #212, ( #233 ) ) ;
#237 = DIRECTION ( 'NONE',  ( 0.0000000000000000000, 1.000000000000000000, 0.0000000000000000000 ) ) ;
#238 = DIRECTION ( 'NONE',  ( 4.275831445896958607E-31, 1.000000000000000000, 1.224646799147353207E-16 ) ) ;
#239 = FACE_OUTER_BOUND ( 'NONE', #190, .T. ) ;
#240 = DIRECTION ( 'NONE',  ( 0.0000000000000000000, 1.000000000000000000, 0.0000000000000000000 ) ) ;
#241 = AXIS2_PLACEMENT_3D ( 'NONE', #36, #78, #168 ) ;
#242 = DIRECTION ( 'NONE',  ( 3.491481338843133355E-15, -1.224646799147353207E-16, 1.000000000000000000 ) ) ;
#243 = PRODUCT ( '321707', '321707', '', ( #54 ) ) ;
ENDSEC;
END-ISO-10303-21;
