ISO-10303-21;
HEADER;
FILE_DESCRIPTION (( 'STEP AP203' ),
    '1' );
FILE_NAME ('321706.step',
    '2021-12-02T12:56:45',
    ( '' ),
    ( '' ),
    'SwSTEP 2.0',
    'SolidWorks 2019',
    '' );
FILE_SCHEMA (( 'CONFIG_CONTROL_DESIGN' ));
ENDSEC;

DATA;
#1 = CARTESIAN_POINT ( 'NONE',  ( 2.793185071074506684E-13, -9.797174393178826052E-15, 80.00000000000000000 ) ) ;
#2 = ORGANIZATION ( 'UNSPECIFIED', 'UNSPECIFIED', '' ) ;
#3 = EDGE_LOOP ( 'NONE', ( #21 ) ) ;
#4 = CARTESIAN_POINT ( 'NONE',  ( 0.0000000000000000000, 2.000000000000023537, 0.0000000000000000000 ) ) ;
#5 = DIRECTION ( 'NONE',  ( 3.491481338843133355E-15, -1.224646799147353207E-16, 1.000000000000000000 ) ) ;
#6 = DIRECTION ( 'NONE',  ( 0.0000000000000000000, 1.000000000000000000, 0.0000000000000000000 ) ) ;
#7 = FACE_OUTER_BOUND ( 'NONE', #3, .T. ) ;
#8 = CC_DESIGN_PERSON_AND_ORGANIZATION_ASSIGNMENT ( #15, #48, ( #86 ) ) ;
#9 = DIRECTION ( 'NONE',  ( -3.491481338843133355E-15, 1.224646799147353207E-16, -1.000000000000000000 ) ) ;
#10 = VERTEX_POINT ( 'NONE', #170 ) ;
#11 = AXIS2_PLACEMENT_3D ( 'NONE', #187, #26, #59 ) ;
#12 = COORDINATED_UNIVERSAL_TIME_OFFSET ( 1, 0, .AHEAD. ) ;
#13 = PLANE ( 'NONE',  #166 ) ;
#14 = APPROVAL_DATE_TIME ( #218, #18 ) ;
#15 = PERSON_AND_ORGANIZATION ( #165, #2 ) ;
#16 = PERSON_AND_ORGANIZATION ( #165, #2 ) ;
#17 = COORDINATED_UNIVERSAL_TIME_OFFSET ( 1, 0, .AHEAD. ) ;
#18 = APPROVAL ( #68, 'UNSPECIFIED' ) ;
#19 = AXIS2_PLACEMENT_3D ( 'NONE', #63, #38, #184 ) ;
#20 = FACE_OUTER_BOUND ( 'NONE', #45, .T. ) ;
#21 = ORIENTED_EDGE ( 'NONE', *, *, #82, .F. ) ;
#22 = VERTEX_POINT ( 'NONE', #175 ) ;
#23 = ORIENTED_EDGE ( 'NONE', *, *, #197, .T. ) ;
#24 = ADVANCED_FACE ( 'NONE', ( #40 ), #112, .F. ) ;
#25 = CARTESIAN_POINT ( 'NONE',  ( 1.396592535537253342E-15, 2.400000000000024336, 0.3999999999999999667 ) ) ;
#26 = DIRECTION ( 'NONE',  ( -3.491481338843133355E-15, 1.224646799147353207E-16, -1.000000000000000000 ) ) ;
#27 = CARTESIAN_POINT ( 'NONE',  ( 2.779219145719134403E-13, 1.999999999999991340, 79.60000000000000853 ) ) ;
#28 = DIRECTION ( 'NONE',  ( -3.491481338843133355E-15, 1.224646799147353207E-16, -1.000000000000000000 ) ) ;
#29 = COORDINATED_UNIVERSAL_TIME_OFFSET ( 1, 0, .AHEAD. ) ;
#30 = PERSON_AND_ORGANIZATION ( #165, #2 ) ;
#31 = CALENDAR_DATE ( 2021, 2, 12 ) ;
#32 = CIRCLE ( 'NONE', #62, 2.000000000000000888 ) ;
#33 = SECURITY_CLASSIFICATION_LEVEL ( 'unclassified' ) ;
#34 = ADVANCED_FACE ( 'NONE', ( #188, #205 ), #124, .T. ) ;
#35 = LOCAL_TIME ( 13, 56, 44.00000000000000000, #29 ) ;
#36 = ORIENTED_EDGE ( 'NONE', *, *, #222, .F. ) ;
#37 = ORIENTED_EDGE ( 'NONE', *, *, #154, .T. ) ;
#38 = DIRECTION ( 'NONE',  ( -3.491481338843133355E-15, 1.224646799147353207E-16, -1.000000000000000000 ) ) ;
#39 = AXIS2_PLACEMENT_3D ( 'NONE', #97, #173, #129 ) ;
#40 = FACE_OUTER_BOUND ( 'NONE', #203, .T. ) ;
#41 = VERTEX_POINT ( 'NONE', #113 ) ;
#42 = ORIENTED_EDGE ( 'NONE', *, *, #154, .F. ) ;
#43 = FACE_OUTER_BOUND ( 'NONE', #58, .T. ) ;
#44 = AXIS2_PLACEMENT_3D ( 'NONE', #89, #167, #208 ) ;
#45 = EDGE_LOOP ( 'NONE', ( #108 ) ) ;
#46 = DIRECTION ( 'NONE',  ( 4.275831445896958607E-31, 1.000000000000000000, 1.224646799147353207E-16 ) ) ;
#47 = VERTEX_POINT ( 'NONE', #55 ) ;
#48 = PERSON_AND_ORGANIZATION_ROLE ( 'design_owner' ) ;
#49 = LOCAL_TIME ( 13, 56, 44.00000000000000000, #17 ) ;
#50 = MECHANICAL_CONTEXT ( 'NONE', #60, 'mechanical' ) ;
#51 = DIRECTION ( 'NONE',  ( 3.491481338843133355E-15, -1.224646799147353207E-16, 1.000000000000000000 ) ) ;
#52 = PERSON_AND_ORGANIZATION_ROLE ( 'creator' ) ;
#53 = AXIS2_PLACEMENT_3D ( 'NONE', #117, #206, #100 ) ;
#54 = ORIENTED_EDGE ( 'NONE', *, *, #126, .T. ) ;
#55 = CARTESIAN_POINT ( 'NONE',  ( 4.189777606611760026E-14, 2.400000000000023448, 12.00000000000000000 ) ) ;
#56 = CARTESIAN_POINT ( 'NONE',  ( -8.551662891794017056E-31, 2.999519565323750796E-32, -2.449293598294735011E-16 ) ) ;
#57 = CYLINDRICAL_SURFACE ( 'NONE', #147, 2.400000000000024336 ) ;
#58 = EDGE_LOOP ( 'NONE', ( #23 ) ) ;
#59 = DIRECTION ( 'NONE',  ( 0.0000000000000000000, 1.000000000000000000, 0.0000000000000000000 ) ) ;
#60 = APPLICATION_CONTEXT ( 'configuration controlled 3d designs of mechanical parts and assemblies' ) ;
#61 = FACE_BOUND ( 'NONE', #190, .T. ) ;
#62 = AXIS2_PLACEMENT_3D ( 'NONE', #220, #162, #212 ) ;
#63 = CARTESIAN_POINT ( 'NONE',  ( 4.189777606611760026E-14, -1.469576158976823947E-15, 12.00000000000000000 ) ) ;
#64 = CALENDAR_DATE ( 2021, 2, 12 ) ;
#65 = UNCERTAINTY_MEASURE_WITH_UNIT (LENGTH_MEASURE( 1.000000000000000082E-05 ), #131, 'distance_accuracy_value', 'NONE');
#66 = AXIS2_PLACEMENT_3D ( 'NONE', #139, #157, #230 ) ;
#67 = APPLICATION_PROTOCOL_DEFINITION ( 'international standard', 'config_control_design', 1994, #149 ) ;
#68 = APPROVAL_STATUS ( 'not_yet_approved' ) ;
#69 = CONICAL_SURFACE ( 'NONE', #241, 1.600000000000000977, 0.7853981633974512766 ) ;
#70 =( GEOMETRIC_REPRESENTATION_CONTEXT ( 3 ) GLOBAL_UNCERTAINTY_ASSIGNED_CONTEXT ( ( #65 ) ) GLOBAL_UNIT_ASSIGNED_CONTEXT ( ( #131, #204, #217 ) ) REPRESENTATION_CONTEXT ( 'NONE', 'WORKASPACE' ) );
#71 = LOCAL_TIME ( 13, 56, 44.00000000000000000, #85 ) ;
#72 = DIRECTION ( 'NONE',  ( -3.491481338843133355E-15, 1.224646799147353207E-16, -1.000000000000000000 ) ) ;
#73 = EDGE_LOOP ( 'NONE', ( #54 ) ) ;
#74 = ORIENTED_EDGE ( 'NONE', *, *, #197, .F. ) ;
#75 = CARTESIAN_POINT ( 'NONE',  ( 4.189777606611760026E-14, -1.469576158976823947E-15, 12.00000000000000000 ) ) ;
#76 = FACE_OUTER_BOUND ( 'NONE', #156, .T. ) ;
#77 = VERTEX_POINT ( 'NONE', #4 ) ;
#78 = AXIS2_PLACEMENT_3D ( 'NONE', #75, #192, #152 ) ;
#79 = MANIFOLD_SOLID_BREP ( 'Corps-Déplacer/Copier1[1]', #88 ) ;
#80 = CALENDAR_DATE ( 2021, 2, 12 ) ;
#81 = CARTESIAN_POINT ( 'NONE',  ( 4.189777606611760026E-14, -1.469576158976823947E-15, 12.00000000000000000 ) ) ;
#82 = EDGE_CURVE ( 'NONE', #47, #47, #110, .T. ) ;
#83 = AXIS2_PLACEMENT_3D ( 'NONE', #81, #28, #159 ) ;
#84 = SHAPE_DEFINITION_REPRESENTATION ( #91, #122 ) ;
#85 = COORDINATED_UNIVERSAL_TIME_OFFSET ( 1, 0, .AHEAD. ) ;
#86 = PRODUCT ( '321706', '321706', '', ( #50 ) ) ;
#87 = PRODUCT_RELATED_PRODUCT_CATEGORY ( 'detail', '', ( #86 ) ) ;
#88 = CLOSED_SHELL ( 'NONE', ( #242, #186, #221, #163, #24 ) ) ;
#89 = CARTESIAN_POINT ( 'NONE',  ( 2.793185071074506684E-13, -9.797174393178826052E-15, 80.00000000000000000 ) ) ;
#90 = CARTESIAN_POINT ( 'NONE',  ( 2.793185071074506684E-13, 1.199807826129472128E-32, 80.00000000000000000 ) ) ;
#91 = PRODUCT_DEFINITION_SHAPE ( 'NONE', 'NONE',  #171 ) ;
#92 = CC_DESIGN_SECURITY_CLASSIFICATION ( #200, ( #151 ) ) ;
#93 = CARTESIAN_POINT ( 'NONE',  ( 0.0000000000000000000, 0.0000000000000000000, 0.0000000000000000000 ) ) ;
#94 = ORIENTED_EDGE ( 'NONE', *, *, #231, .F. ) ;
#95 = CONICAL_SURFACE ( 'NONE', #19, 2.400000000000024780, 0.5235987755983005920 ) ;
#96 = CYLINDRICAL_SURFACE ( 'NONE', #66, 1.999999999999996669 ) ;
#97 = CARTESIAN_POINT ( 'NONE',  ( 1.396592535537252356E-15, -4.898587196589408761E-17, 0.3999999999999996891 ) ) ;
#98 = VERTEX_POINT ( 'NONE', #25 ) ;
#99 = PERSON_AND_ORGANIZATION ( #165, #2 ) ;
#100 = DIRECTION ( 'NONE',  ( 4.275831445896958607E-31, 1.000000000000000000, 1.224646799147353207E-16 ) ) ;
#101 = ADVANCED_FACE ( 'NONE', ( #215 ), #229, .T. ) ;
#102 = DATE_AND_TIME ( #141, #224 ) ;
#103 = DATE_TIME_ROLE ( 'creation_date' ) ;
#104 = CC_DESIGN_APPROVAL ( #138, ( #171 ) ) ;
#105 = DATE_AND_TIME ( #80, #183 ) ;
#106 = APPROVAL_PERSON_ORGANIZATION ( #164, #138, #177 ) ;
#107 = ADVANCED_FACE ( 'NONE', ( #7 ), #13, .T. ) ;
#108 = ORIENTED_EDGE ( 'NONE', *, *, #82, .T. ) ;
#109 = CC_DESIGN_DATE_AND_TIME_ASSIGNMENT ( #105, #235, ( #200 ) ) ;
#110 = CIRCLE ( 'NONE', #83, 2.400000000000024780 ) ;
#111 = FACE_OUTER_BOUND ( 'NONE', #185, .T. ) ;
#112 = PLANE ( 'NONE',  #127 ) ;
#113 = CARTESIAN_POINT ( 'NONE',  ( 4.431674529513975519E-14, 1.999999999999990452, 12.69282032302760577 ) ) ;
#114 = EDGE_LOOP ( 'NONE', ( #150 ) ) ;
#115 = EDGE_LOOP ( 'NONE', ( #172 ) ) ;
#116 = CARTESIAN_POINT ( 'NONE',  ( 4.189777606611760026E-14, 1.799711739194246098E-32, 12.00000000000000000 ) ) ;
#117 = CARTESIAN_POINT ( 'NONE',  ( -4.275831445897008528E-31, 1.499759782661875398E-32, -1.224646799147367505E-16 ) ) ;
#118 = VERTEX_POINT ( 'NONE', #27 ) ;
#119 = CC_DESIGN_PERSON_AND_ORGANIZATION_ASSIGNMENT ( #30, #52, ( #151 ) ) ;
#120 = PERSON_AND_ORGANIZATION ( #165, #2 ) ;
#121 = PERSON_AND_ORGANIZATION_ROLE ( 'creator' ) ;
#122 = ADVANCED_BREP_SHAPE_REPRESENTATION ( '321706', ( #79, #161, #207 ), #70 ) ;
#123 = PERSON_AND_ORGANIZATION ( #165, #2 ) ;
#124 = CONICAL_SURFACE ( 'NONE', #136, 2.000000000000023537, 0.7853981633974496113 ) ;
#125 = DIRECTION ( 'NONE',  ( -4.275831445896958607E-31, -1.000000000000000000, -1.224646799147353207E-16 ) ) ;
#126 = EDGE_CURVE ( 'NONE', #118, #118, #32, .T. ) ;
#127 = AXIS2_PLACEMENT_3D ( 'NONE', #90, #153, #168 ) ;
#128 = EDGE_LOOP ( 'NONE', ( #94 ) ) ;
#129 = DIRECTION ( 'NONE',  ( 4.012354050806700489E-31, 1.000000000000000000, 1.129377263005722281E-16 ) ) ;
#130 = ORIENTED_EDGE ( 'NONE', *, *, #126, .F. ) ;
#131 =( LENGTH_UNIT ( ) NAMED_UNIT ( * ) SI_UNIT ( .MILLI., .METRE. ) );
#132 = DIRECTION ( 'NONE',  ( -4.275831445896958607E-31, -1.000000000000000000, -1.224646799147353207E-16 ) ) ;
#133 = CC_DESIGN_APPROVAL ( #18, ( #151 ) ) ;
#134 = FACE_BOUND ( 'NONE', #225, .T. ) ;
#135 = CIRCLE ( 'NONE', #78, 2.400000000000024780 ) ;
#136 = AXIS2_PLACEMENT_3D ( 'NONE', #56, #5, #132 ) ;
#137 = DIRECTION ( 'NONE',  ( -3.491481338843133355E-15, 1.224646799147353207E-16, -1.000000000000000000 ) ) ;
#138 = APPROVAL ( #142, 'UNSPECIFIED' ) ;
#139 = CARTESIAN_POINT ( 'NONE',  ( 0.0000000000000000000, 0.0000000000000000000, 0.0000000000000000000 ) ) ;
#140 = AXIS2_PLACEMENT_3D ( 'NONE', #232, #137, #46 ) ;
#141 = CALENDAR_DATE ( 2021, 2, 12 ) ;
#142 = APPROVAL_STATUS ( 'not_yet_approved' ) ;
#143 = CC_DESIGN_PERSON_AND_ORGANIZATION_ASSIGNMENT ( #120, #121, ( #171 ) ) ;
#144 = APPROVAL_ROLE ( '' ) ;
#145 = CC_DESIGN_PERSON_AND_ORGANIZATION_ASSIGNMENT ( #99, #176, ( #200 ) ) ;
#146 = EDGE_CURVE ( 'NONE', #41, #41, #191, .T. ) ;
#147 = AXIS2_PLACEMENT_3D ( 'NONE', #93, #9, #234 ) ;
#148 = EDGE_LOOP ( 'NONE', ( #37 ) ) ;
#149 = APPLICATION_CONTEXT ( 'configuration controlled 3d designs of mechanical parts and assemblies' ) ;
#150 = ORIENTED_EDGE ( 'NONE', *, *, #231, .T. ) ;
#151 = PRODUCT_DEFINITION_FORMATION_WITH_SPECIFIED_SOURCE ( 'ANY', '', #86, .NOT_KNOWN. ) ;
#152 = DIRECTION ( 'NONE',  ( 0.0000000000000000000, 1.000000000000000000, 0.0000000000000000000 ) ) ;
#153 = DIRECTION ( 'NONE',  ( -3.491481338843133355E-15, 1.224646799147353207E-16, -1.000000000000000000 ) ) ;
#154 = EDGE_CURVE ( 'NONE', #98, #98, #233, .T. ) ;
#155 = DESIGN_CONTEXT ( 'detailed design', #149, 'design' ) ;
#156 = EDGE_LOOP ( 'NONE', ( #130 ) ) ;
#157 = DIRECTION ( 'NONE',  ( -3.491481338843133355E-15, 1.224646799147353207E-16, -1.000000000000000000 ) ) ;
#158 = FACE_OUTER_BOUND ( 'NONE', #115, .T. ) ;
#159 = DIRECTION ( 'NONE',  ( 0.0000000000000000000, 1.000000000000000000, 0.0000000000000000000 ) ) ;
#160 = APPLICATION_PROTOCOL_DEFINITION ( 'international standard', 'config_control_design', 1994, #60 ) ;
#161 = MANIFOLD_SOLID_BREP ( 'Corps-Déplacer/Copier1[2]', #219 ) ;
#162 = DIRECTION ( 'NONE',  ( -3.491481338843133355E-15, 1.224646799147353207E-16, -1.000000000000000000 ) ) ;
#163 = ADVANCED_FACE ( 'NONE', ( #76, #61 ), #69, .T. ) ;
#164 = PERSON_AND_ORGANIZATION ( #165, #2 ) ;
#165 = PERSON ( 'UNSPECIFIED', 'UNSPECIFIED', 'UNSPECIFIED', ('UNSPECIFIED'), ('UNSPECIFIED'), ('UNSPECIFIED') ) ;
#166 = AXIS2_PLACEMENT_3D ( 'NONE', #211, #51, #125 ) ;
#167 = DIRECTION ( 'NONE',  ( -3.491481338843133355E-15, 1.224646799147353207E-16, -1.000000000000000000 ) ) ;
#168 = DIRECTION ( 'NONE',  ( 4.275831445896958607E-31, 1.000000000000000000, 1.224646799147353207E-16 ) ) ;
#169 = APPROVAL_PERSON_ORGANIZATION ( #198, #223, #180 ) ;
#170 = CARTESIAN_POINT ( 'NONE',  ( 2.793185071074506684E-13, 1.599999999999991207, 80.00000000000000000 ) ) ;
#171 = PRODUCT_DEFINITION ( 'UNKNOWN', '', #151, #155 ) ;
#172 = ORIENTED_EDGE ( 'NONE', *, *, #146, .F. ) ;
#173 = DIRECTION ( 'NONE',  ( -3.491481338843133355E-15, 1.224646799147353207E-16, -1.000000000000000000 ) ) ;
#174 = FACE_OUTER_BOUND ( 'NONE', #201, .T. ) ;
#175 = CARTESIAN_POINT ( 'NONE',  ( 4.189777606611760026E-14, 2.400000000000023448, 12.00000000000000000 ) ) ;
#176 = PERSON_AND_ORGANIZATION_ROLE ( 'classification_officer' ) ;
#177 = APPROVAL_ROLE ( '' ) ;
#178 = CIRCLE ( 'NONE', #140, 2.000000000000023537 ) ;
#179 = APPROVAL_STATUS ( 'not_yet_approved' ) ;
#180 = APPROVAL_ROLE ( '' ) ;
#181 = CC_DESIGN_PERSON_AND_ORGANIZATION_ASSIGNMENT ( #123, #216, ( #151 ) ) ;
#182 = COORDINATED_UNIVERSAL_TIME_OFFSET ( 1, 0, .AHEAD. ) ;
#183 = LOCAL_TIME ( 13, 56, 44.00000000000000000, #12 ) ;
#184 = DIRECTION ( 'NONE',  ( 0.0000000000000000000, 1.000000000000000000, 0.0000000000000000000 ) ) ;
#185 = EDGE_LOOP ( 'NONE', ( #74 ) ) ;
#186 = ADVANCED_FACE ( 'NONE', ( #134, #111 ), #95, .T. ) ;
#187 = CARTESIAN_POINT ( 'NONE',  ( 4.431674529513975519E-14, -1.554422178074822949E-15, 12.69282032302760577 ) ) ;
#188 = FACE_OUTER_BOUND ( 'NONE', #148, .T. ) ;
#189 = CC_DESIGN_APPROVAL ( #223, ( #200 ) ) ;
#190 = EDGE_LOOP ( 'NONE', ( #227 ) ) ;
#191 = CIRCLE ( 'NONE', #11, 1.999999999999992228 ) ;
#192 = DIRECTION ( 'NONE',  ( -3.491481338843133355E-15, 1.224646799147353207E-16, -1.000000000000000000 ) ) ;
#193 = DIRECTION ( 'NONE',  ( -4.275831445896958607E-31, -1.000000000000000000, -1.224646799147353207E-16 ) ) ;
#194 = CIRCLE ( 'NONE', #44, 1.600000000000000977 ) ;
#195 = CALENDAR_DATE ( 2021, 2, 12 ) ;
#196 = CARTESIAN_POINT ( 'NONE',  ( 0.0000000000000000000, 0.0000000000000000000, 0.0000000000000000000 ) ) ;
#197 = EDGE_CURVE ( 'NONE', #22, #22, #135, .T. ) ;
#198 = PERSON_AND_ORGANIZATION ( #165, #2 ) ;
#199 = DIRECTION ( 'NONE',  ( 0.0000000000000000000, 0.0000000000000000000, 1.000000000000000000 ) ) ;
#200 = SECURITY_CLASSIFICATION ( '', '', #33 ) ;
#201 = EDGE_LOOP ( 'NONE', ( #42 ) ) ;
#202 = FACE_OUTER_BOUND ( 'NONE', #73, .T. ) ;
#203 = EDGE_LOOP ( 'NONE', ( #36 ) ) ;
#204 =( NAMED_UNIT ( * ) PLANE_ANGLE_UNIT ( ) SI_UNIT ( $, .RADIAN. ) );
#205 = FACE_BOUND ( 'NONE', #128, .T. ) ;
#206 = DIRECTION ( 'NONE',  ( -3.491481338843133355E-15, 1.224646799147353207E-16, -1.000000000000000000 ) ) ;
#207 = AXIS2_PLACEMENT_3D ( 'NONE', #196, #199, #238 ) ;
#208 = DIRECTION ( 'NONE',  ( 0.0000000000000000000, 1.000000000000000000, 0.0000000000000000000 ) ) ;
#209 = DIRECTION ( 'NONE',  ( 3.491481338843133355E-15, -1.224646799147353207E-16, 1.000000000000000000 ) ) ;
#210 = APPROVAL_DATE_TIME ( #102, #138 ) ;
#211 = CARTESIAN_POINT ( 'NONE',  ( 4.189777606611760026E-14, 1.799711739194246098E-32, 12.00000000000000000 ) ) ;
#212 = DIRECTION ( 'NONE',  ( 0.0000000000000000000, 1.000000000000000000, 0.0000000000000000000 ) ) ;
#213 = APPROVAL_DATE_TIME ( #240, #223 ) ;
#214 = ADVANCED_FACE ( 'NONE', ( #20, #174 ), #57, .T. ) ;
#215 = FACE_OUTER_BOUND ( 'NONE', #114, .T. ) ;
#216 = PERSON_AND_ORGANIZATION_ROLE ( 'design_supplier' ) ;
#217 =( NAMED_UNIT ( * ) SI_UNIT ( $, .STERADIAN. ) SOLID_ANGLE_UNIT ( ) );
#218 = DATE_AND_TIME ( #195, #35 ) ;
#219 = CLOSED_SHELL ( 'NONE', ( #214, #107, #101, #34 ) ) ;
#220 = CARTESIAN_POINT ( 'NONE',  ( 2.779219145719134403E-13, -9.748188521212932624E-15, 79.60000000000000853 ) ) ;
#221 = ADVANCED_FACE ( 'NONE', ( #158, #202 ), #96, .T. ) ;
#222 = EDGE_CURVE ( 'NONE', #10, #10, #194, .T. ) ;
#223 = APPROVAL ( #179, 'UNSPECIFIED' ) ;
#224 = LOCAL_TIME ( 13, 56, 44.00000000000000000, #182 ) ;
#225 = EDGE_LOOP ( 'NONE', ( #228 ) ) ;
#226 = PLANE ( 'NONE',  #236 ) ;
#227 = ORIENTED_EDGE ( 'NONE', *, *, #222, .T. ) ;
#228 = ORIENTED_EDGE ( 'NONE', *, *, #146, .T. ) ;
#229 = PLANE ( 'NONE',  #53 ) ;
#230 = DIRECTION ( 'NONE',  ( 4.275831445896958607E-31, 1.000000000000000000, 1.224646799147353207E-16 ) ) ;
#231 = EDGE_CURVE ( 'NONE', #77, #77, #178, .T. ) ;
#232 = CARTESIAN_POINT ( 'NONE',  ( -8.551662891794017056E-31, 2.999519565323750796E-32, -2.449293598294735011E-16 ) ) ;
#233 = CIRCLE ( 'NONE', #39, 2.400000000000024336 ) ;
#234 = DIRECTION ( 'NONE',  ( 4.275831445896959482E-31, 1.000000000000000000, 1.224646799147353207E-16 ) ) ;
#235 = DATE_TIME_ROLE ( 'classification_date' ) ;
#236 = AXIS2_PLACEMENT_3D ( 'NONE', #116, #209, #193 ) ;
#237 = DATE_AND_TIME ( #31, #71 ) ;
#238 = DIRECTION ( 'NONE',  ( 1.000000000000000000, 0.0000000000000000000, 0.0000000000000000000 ) ) ;
#239 = CC_DESIGN_DATE_AND_TIME_ASSIGNMENT ( #237, #103, ( #171 ) ) ;
#240 = DATE_AND_TIME ( #64, #49 ) ;
#241 = AXIS2_PLACEMENT_3D ( 'NONE', #1, #72, #6 ) ;
#242 = ADVANCED_FACE ( 'NONE', ( #43 ), #226, .F. ) ;
#243 = APPROVAL_PERSON_ORGANIZATION ( #16, #18, #144 ) ;
ENDSEC;
END-ISO-10303-21;
