ISO-10303-21;
HEADER;
FILE_DESCRIPTION (( 'STEP AP203' ),
    '1' );
FILE_NAME ('321705.step',
    '2021-12-02T12:56:44',
    ( '' ),
    ( '' ),
    'SwSTEP 2.0',
    'SolidWorks 2019',
    '' );
FILE_SCHEMA (( 'CONFIG_CONTROL_DESIGN' ));
ENDSEC;

DATA;
#1 = ORIENTED_EDGE ( 'NONE', *, *, #32, .T. ) ;
#2 = APPROVAL_DATE_TIME ( #74, #45 ) ;
#3 = EDGE_LOOP ( 'NONE', ( #53 ) ) ;
#4 = CIRCLE ( 'NONE', #76, 2.395000000000024887 ) ;
#5 = PLANE ( 'NONE',  #172 ) ;
#6 = DIRECTION ( 'NONE',  ( 0.0000000000000000000, 1.000000000000000000, 0.0000000000000000000 ) ) ;
#7 = DIRECTION ( 'NONE',  ( -3.491481338843133355E-15, 1.224646799147353207E-16, -1.000000000000000000 ) ) ;
#8 = CIRCLE ( 'NONE', #58, 2.395000000000024887 ) ;
#9 = DIRECTION ( 'NONE',  ( -3.491481338843133355E-15, 1.224646799147353207E-16, -1.000000000000000000 ) ) ;
#10 = FACE_OUTER_BOUND ( 'NONE', #189, .T. ) ;
#11 = UNCERTAINTY_MEASURE_WITH_UNIT (LENGTH_MEASURE( 1.000000000000000082E-05 ), #85, 'distance_accuracy_value', 'NONE');
#12 = CARTESIAN_POINT ( 'NONE',  ( -4.265141867282266171E-31, 1.496010383205220179E-32, -1.221585182149499067E-16 ) ) ;
#13 = DATE_TIME_ROLE ( 'creation_date' ) ;
#14 = DIRECTION ( 'NONE',  ( -3.491481338843133355E-15, 1.224646799147353207E-16, -1.000000000000000000 ) ) ;
#15 = CC_DESIGN_DATE_AND_TIME_ASSIGNMENT ( #77, #56, ( #94 ) ) ;
#16 =( GEOMETRIC_REPRESENTATION_CONTEXT ( 3 ) GLOBAL_UNCERTAINTY_ASSIGNED_CONTEXT ( ( #11 ) ) GLOBAL_UNIT_ASSIGNED_CONTEXT ( ( #85, #50, #240 ) ) REPRESENTATION_CONTEXT ( 'NONE', 'WORKASPACE' ) );
#17 = DIRECTION ( 'NONE',  ( 1.000000000000000000, 0.0000000000000000000, 0.0000000000000000000 ) ) ;
#18 = PERSON_AND_ORGANIZATION_ROLE ( 'design_supplier' ) ;
#19 = COORDINATED_UNIVERSAL_TIME_OFFSET ( 1, 0, .AHEAD. ) ;
#20 = PERSON_AND_ORGANIZATION_ROLE ( 'creator' ) ;
#21 = ADVANCED_FACE ( 'NONE', ( #39 ), #5, .F. ) ;
#22 = CIRCLE ( 'NONE', #98, 2.395000000000024887 ) ;
#23 = FACE_BOUND ( 'NONE', #192, .T. ) ;
#24 = CARTESIAN_POINT ( 'NONE',  ( 4.428650817977698645E-14, -1.553361602836098300E-15, 12.68416006898976178 ) ) ;
#25 = FACE_OUTER_BOUND ( 'NONE', #148, .T. ) ;
#26 = PLANE ( 'NONE',  #113 ) ;
#27 = APPROVAL_PERSON_ORGANIZATION ( #220, #175, #125 ) ;
#28 = DIRECTION ( 'NONE',  ( -3.491481338843133355E-15, 1.224646799147353207E-16, -1.000000000000000000 ) ) ;
#29 = APPROVAL_PERSON_ORGANIZATION ( #238, #90, #182 ) ;
#30 = CALENDAR_DATE ( 2021, 2, 12 ) ;
#31 = APPLICATION_CONTEXT ( 'configuration controlled 3d designs of mechanical parts and assemblies' ) ;
#32 = EDGE_CURVE ( 'NONE', #87, #87, #8, .T. ) ;
#33 = COORDINATED_UNIVERSAL_TIME_OFFSET ( 1, 0, .AHEAD. ) ;
#34 = CIRCLE ( 'NONE', #88, 1.600000000000000977 ) ;
#35 = EDGE_LOOP ( 'NONE', ( #171 ) ) ;
#36 = ADVANCED_FACE ( 'NONE', ( #10, #180 ), #72, .T. ) ;
#37 = SECURITY_CLASSIFICATION_LEVEL ( 'unclassified' ) ;
#38 = PRODUCT_DEFINITION_SHAPE ( 'NONE', 'NONE',  #104 ) ;
#39 = FACE_OUTER_BOUND ( 'NONE', #111, .T. ) ;
#40 = DIRECTION ( 'NONE',  ( -3.491481338843133355E-15, 1.224646799147353207E-16, -1.000000000000000000 ) ) ;
#41 = CIRCLE ( 'NONE', #222, 1.995000000000023199 ) ;
#42 = DIRECTION ( 'NONE',  ( -3.491481338843133355E-15, 1.224646799147353207E-16, -1.000000000000000000 ) ) ;
#43 = FACE_BOUND ( 'NONE', #57, .T. ) ;
#44 = DIRECTION ( 'NONE',  ( -4.275831445896958607E-31, -1.000000000000000000, -1.224646799147353207E-16 ) ) ;
#45 = APPROVAL ( #211, 'UNSPECIFIED' ) ;
#46 = CARTESIAN_POINT ( 'NONE',  ( 0.0000000000000000000, 0.0000000000000000000, 0.0000000000000000000 ) ) ;
#47 = DATE_AND_TIME ( #184, #155 ) ;
#48 = PERSON_AND_ORGANIZATION ( #92, #198 ) ;
#49 = ADVANCED_FACE ( 'NONE', ( #231 ), #181, .T. ) ;
#50 =( NAMED_UNIT ( * ) PLANE_ANGLE_UNIT ( ) SI_UNIT ( $, .RADIAN. ) );
#51 = APPLICATION_PROTOCOL_DEFINITION ( 'international standard', 'config_control_design', 1994, #205 ) ;
#52 = PERSON_AND_ORGANIZATION ( #92, #198 ) ;
#53 = ORIENTED_EDGE ( 'NONE', *, *, #79, .T. ) ;
#54 = PERSON_AND_ORGANIZATION_ROLE ( 'classification_officer' ) ;
#55 = ORIENTED_EDGE ( 'NONE', *, *, #152, .F. ) ;
#56 = DATE_TIME_ROLE ( 'classification_date' ) ;
#57 = EDGE_LOOP ( 'NONE', ( #167 ) ) ;
#58 = AXIS2_PLACEMENT_3D ( 'NONE', #153, #84, #201 ) ;
#59 = CC_DESIGN_PERSON_AND_ORGANIZATION_ASSIGNMENT ( #52, #20, ( #131 ) ) ;
#60 = CC_DESIGN_APPROVAL ( #175, ( #104 ) ) ;
#61 = ORIENTED_EDGE ( 'NONE', *, *, #136, .T. ) ;
#62 = DESIGN_CONTEXT ( 'detailed design', #205, 'design' ) ;
#63 = CC_DESIGN_PERSON_AND_ORGANIZATION_ASSIGNMENT ( #48, #164, ( #226 ) ) ;
#64 = DIRECTION ( 'NONE',  ( 4.275831445896958607E-31, 1.000000000000000000, 1.224646799147353207E-16 ) ) ;
#65 = CARTESIAN_POINT ( 'NONE',  ( 4.189777606611760026E-14, 1.795962339737591153E-32, 12.00000000000000000 ) ) ;
#66 = CARTESIAN_POINT ( 'NONE',  ( 4.189777606611760026E-14, 1.795962339737591153E-32, 12.00000000000000000 ) ) ;
#67 = DIRECTION ( 'NONE',  ( -4.275831445896958607E-31, -1.000000000000000000, -1.224646799147353207E-16 ) ) ;
#68 = CIRCLE ( 'NONE', #210, 2.000000000000000888 ) ;
#69 = MECHANICAL_CONTEXT ( 'NONE', #31, 'mechanical' ) ;
#70 = VERTEX_POINT ( 'NONE', #140 ) ;
#71 = CARTESIAN_POINT ( 'NONE',  ( 0.0000000000000000000, 0.0000000000000000000, 0.0000000000000000000 ) ) ;
#72 = CONICAL_SURFACE ( 'NONE', #187, 1.995000000000023199, 0.7853981633974504994 ) ;
#73 = CARTESIAN_POINT ( 'NONE',  ( 0.0000000000000000000, 0.0000000000000000000, 0.0000000000000000000 ) ) ;
#74 = DATE_AND_TIME ( #112, #163 ) ;
#75 = EDGE_LOOP ( 'NONE', ( #129 ) ) ;
#76 = AXIS2_PLACEMENT_3D ( 'NONE', #158, #115, #197 ) ;
#77 = DATE_AND_TIME ( #114, #78 ) ;
#78 = LOCAL_TIME ( 13, 56, 44.00000000000000000, #19 ) ;
#79 = EDGE_CURVE ( 'NONE', #144, #144, #22, .T. ) ;
#80 = FACE_OUTER_BOUND ( 'NONE', #151, .T. ) ;
#81 = DIRECTION ( 'NONE',  ( -3.491481338843133355E-15, 1.224646799147353207E-16, -1.000000000000000000 ) ) ;
#82 = DIRECTION ( 'NONE',  ( 0.0000000000000000000, 1.000000000000000000, 0.0000000000000000000 ) ) ;
#83 = CYLINDRICAL_SURFACE ( 'NONE', #130, 1.999999999999996669 ) ;
#84 = DIRECTION ( 'NONE',  ( -3.491481338843133355E-15, 1.224646799147353207E-16, -1.000000000000000000 ) ) ;
#85 =( LENGTH_UNIT ( ) NAMED_UNIT ( * ) SI_UNIT ( .MILLI., .METRE. ) );
#86 = CC_DESIGN_PERSON_AND_ORGANIZATION_ASSIGNMENT ( #241, #54, ( #94 ) ) ;
#87 = VERTEX_POINT ( 'NONE', #108 ) ;
#88 = AXIS2_PLACEMENT_3D ( 'NONE', #102, #81, #236 ) ;
#89 = CARTESIAN_POINT ( 'NONE',  ( 0.0000000000000000000, 1.995000000000023199, 0.0000000000000000000 ) ) ;
#90 = APPROVAL ( #103, 'UNSPECIFIED' ) ;
#91 = COORDINATED_UNIVERSAL_TIME_OFFSET ( 1, 0, .AHEAD. ) ;
#92 = PERSON ( 'UNSPECIFIED', 'UNSPECIFIED', 'UNSPECIFIED', ('UNSPECIFIED'), ('UNSPECIFIED'), ('UNSPECIFIED') ) ;
#93 = APPROVAL_ROLE ( '' ) ;
#94 = SECURITY_CLASSIFICATION ( '', '', #37 ) ;
#95 = ADVANCED_FACE ( 'NONE', ( #138, #80 ), #83, .T. ) ;
#96 = ORIENTED_EDGE ( 'NONE', *, *, #79, .F. ) ;
#97 = EDGE_LOOP ( 'NONE', ( #1 ) ) ;
#98 = AXIS2_PLACEMENT_3D ( 'NONE', #120, #42, #133 ) ;
#99 = DIRECTION ( 'NONE',  ( -3.491481338843133355E-15, 1.224646799147353207E-16, -1.000000000000000000 ) ) ;
#100 = DIRECTION ( 'NONE',  ( 3.491481338843133355E-15, -1.224646799147353207E-16, 1.000000000000000000 ) ) ;
#101 = CYLINDRICAL_SURFACE ( 'NONE', #105, 2.395000000000024887 ) ;
#102 = CARTESIAN_POINT ( 'NONE',  ( 2.793185071074506684E-13, -9.797174393178826052E-15, 80.00000000000000000 ) ) ;
#103 = APPROVAL_STATUS ( 'not_yet_approved' ) ;
#104 = PRODUCT_DEFINITION ( 'UNKNOWN', '', #131, #62 ) ;
#105 = AXIS2_PLACEMENT_3D ( 'NONE', #71, #14, #165 ) ;
#106 = PERSON_AND_ORGANIZATION ( #92, #198 ) ;
#107 = DATE_AND_TIME ( #30, #179 ) ;
#108 = CARTESIAN_POINT ( 'NONE',  ( 4.189777606611760026E-14, 2.395000000000023554, 12.00000000000000000 ) ) ;
#109 = CALENDAR_DATE ( 2021, 2, 12 ) ;
#110 = EDGE_CURVE ( 'NONE', #146, #146, #41, .T. ) ;
#111 = EDGE_LOOP ( 'NONE', ( #173 ) ) ;
#112 = CALENDAR_DATE ( 2021, 2, 12 ) ;
#113 = AXIS2_PLACEMENT_3D ( 'NONE', #12, #28, #116 ) ;
#114 = CALENDAR_DATE ( 2021, 2, 12 ) ;
#115 = DIRECTION ( 'NONE',  ( -3.491481338843133355E-15, 1.224646799147353207E-16, -1.000000000000000000 ) ) ;
#116 = DIRECTION ( 'NONE',  ( 4.275831445896958607E-31, 1.000000000000000000, 1.224646799147353207E-16 ) ) ;
#117 = CARTESIAN_POINT ( 'NONE',  ( 2.779219145719134403E-13, -9.748188521212932624E-15, 79.60000000000000853 ) ) ;
#118 = ADVANCED_FACE ( 'NONE', ( #134 ), #26, .T. ) ;
#119 = FACE_OUTER_BOUND ( 'NONE', #97, .T. ) ;
#120 = CARTESIAN_POINT ( 'NONE',  ( 4.189777606611760026E-14, -1.469576158976823947E-15, 12.00000000000000000 ) ) ;
#121 = VERTEX_POINT ( 'NONE', #188 ) ;
#122 = EDGE_CURVE ( 'NONE', #139, #139, #142, .T. ) ;
#123 = APPLICATION_PROTOCOL_DEFINITION ( 'international standard', 'config_control_design', 1994, #31 ) ;
#124 = CC_DESIGN_SECURITY_CLASSIFICATION ( #94, ( #131 ) ) ;
#125 = APPROVAL_ROLE ( '' ) ;
#126 = PRODUCT_RELATED_PRODUCT_CATEGORY ( 'detail', '', ( #226 ) ) ;
#127 = APPROVAL_STATUS ( 'not_yet_approved' ) ;
#128 = EDGE_LOOP ( 'NONE', ( #55 ) ) ;
#129 = ORIENTED_EDGE ( 'NONE', *, *, #32, .F. ) ;
#130 = AXIS2_PLACEMENT_3D ( 'NONE', #46, #7, #64 ) ;
#131 = PRODUCT_DEFINITION_FORMATION_WITH_SPECIFIED_SOURCE ( 'ANY', '', #226, .NOT_KNOWN. ) ;
#132 = ORIENTED_EDGE ( 'NONE', *, *, #166, .T. ) ;
#133 = DIRECTION ( 'NONE',  ( 0.0000000000000000000, 1.000000000000000000, 0.0000000000000000000 ) ) ;
#134 = FACE_OUTER_BOUND ( 'NONE', #149, .T. ) ;
#135 = DIRECTION ( 'NONE',  ( 3.491481338843133355E-15, -1.224646799147353207E-16, 1.000000000000000000 ) ) ;
#136 = EDGE_CURVE ( 'NONE', #70, #70, #34, .T. ) ;
#137 = CARTESIAN_POINT ( 'NONE',  ( 2.793185071074506684E-13, -9.797174393178826052E-15, 80.00000000000000000 ) ) ;
#138 = FACE_OUTER_BOUND ( 'NONE', #169, .T. ) ;
#139 = VERTEX_POINT ( 'NONE', #221 ) ;
#140 = CARTESIAN_POINT ( 'NONE',  ( 2.793185071074506684E-13, 1.599999999999991207, 80.00000000000000000 ) ) ;
#141 = COORDINATED_UNIVERSAL_TIME_OFFSET ( 1, 0, .AHEAD. ) ;
#142 = CIRCLE ( 'NONE', #183, 1.999999999999992228 ) ;
#143 = CC_DESIGN_APPROVAL ( #90, ( #131 ) ) ;
#144 = VERTEX_POINT ( 'NONE', #223 ) ;
#145 = CC_DESIGN_DATE_AND_TIME_ASSIGNMENT ( #47, #13, ( #104 ) ) ;
#146 = VERTEX_POINT ( 'NONE', #89 ) ;
#147 = CLOSED_SHELL ( 'NONE', ( #243, #49, #118, #36 ) ) ;
#148 = EDGE_LOOP ( 'NONE', ( #96 ) ) ;
#149 = EDGE_LOOP ( 'NONE', ( #212 ) ) ;
#150 = AXIS2_PLACEMENT_3D ( 'NONE', #65, #100, #219 ) ;
#151 = EDGE_LOOP ( 'NONE', ( #132 ) ) ;
#152 = EDGE_CURVE ( 'NONE', #161, #161, #4, .T. ) ;
#153 = CARTESIAN_POINT ( 'NONE',  ( 4.189777606611760026E-14, -1.469576158976823947E-15, 12.00000000000000000 ) ) ;
#154 = CARTESIAN_POINT ( 'NONE',  ( -8.530283734564532341E-31, 2.992020766410440358E-32, -2.443170364298998135E-16 ) ) ;
#155 = LOCAL_TIME ( 13, 56, 44.00000000000000000, #91 ) ;
#156 = MANIFOLD_SOLID_BREP ( 'Corps-Déplacer/Copier1[1]', #190 ) ;
#157 = FACE_OUTER_BOUND ( 'NONE', #3, .T. ) ;
#158 = CARTESIAN_POINT ( 'NONE',  ( 1.396592535537251567E-15, -4.898587196589406296E-17, 0.3999999999999994671 ) ) ;
#159 = DIRECTION ( 'NONE',  ( 4.275831445896958607E-31, 1.000000000000000000, 1.224646799147353207E-16 ) ) ;
#160 = DIRECTION ( 'NONE',  ( 0.0000000000000000000, 0.0000000000000000000, 1.000000000000000000 ) ) ;
#161 = VERTEX_POINT ( 'NONE', #186 ) ;
#162 = ADVANCED_FACE ( 'NONE', ( #232, #23 ), #215, .T. ) ;
#163 = LOCAL_TIME ( 13, 56, 44.00000000000000000, #170 ) ;
#164 = PERSON_AND_ORGANIZATION_ROLE ( 'design_owner' ) ;
#165 = DIRECTION ( 'NONE',  ( 4.275831445896957731E-31, 1.000000000000000000, 1.224646799147353207E-16 ) ) ;
#166 = EDGE_CURVE ( 'NONE', #121, #121, #68, .T. ) ;
#167 = ORIENTED_EDGE ( 'NONE', *, *, #122, .T. ) ;
#168 = LOCAL_TIME ( 13, 56, 44.00000000000000000, #33 ) ;
#169 = EDGE_LOOP ( 'NONE', ( #213 ) ) ;
#170 = COORDINATED_UNIVERSAL_TIME_OFFSET ( 1, 0, .AHEAD. ) ;
#171 = ORIENTED_EDGE ( 'NONE', *, *, #110, .F. ) ;
#172 = AXIS2_PLACEMENT_3D ( 'NONE', #235, #216, #214 ) ;
#173 = ORIENTED_EDGE ( 'NONE', *, *, #136, .F. ) ;
#174 = DIRECTION ( 'NONE',  ( 0.0000000000000000000, 1.000000000000000000, 0.0000000000000000000 ) ) ;
#175 = APPROVAL ( #127, 'UNSPECIFIED' ) ;
#176 = DIRECTION ( 'NONE',  ( 0.0000000000000000000, 1.000000000000000000, 0.0000000000000000000 ) ) ;
#177 = CARTESIAN_POINT ( 'NONE',  ( 4.189777606611760026E-14, -1.469576158976823947E-15, 12.00000000000000000 ) ) ;
#178 = CONICAL_SURFACE ( 'NONE', #196, 2.395000000000024887, 0.5235987755982995928 ) ;
#179 = LOCAL_TIME ( 13, 56, 44.00000000000000000, #141 ) ;
#180 = FACE_BOUND ( 'NONE', #35, .T. ) ;
#181 = PLANE ( 'NONE',  #150 ) ;
#182 = APPROVAL_ROLE ( '' ) ;
#183 = AXIS2_PLACEMENT_3D ( 'NONE', #24, #200, #176 ) ;
#184 = CALENDAR_DATE ( 2021, 2, 12 ) ;
#185 = APPROVAL_DATE_TIME ( #107, #90 ) ;
#186 = CARTESIAN_POINT ( 'NONE',  ( 1.396592535537252553E-15, 2.395000000000024887, 0.3999999999999997446 ) ) ;
#187 = AXIS2_PLACEMENT_3D ( 'NONE', #204, #135, #67 ) ;
#188 = CARTESIAN_POINT ( 'NONE',  ( 2.779219145719134403E-13, 1.999999999999991340, 79.60000000000000853 ) ) ;
#189 = EDGE_LOOP ( 'NONE', ( #227 ) ) ;
#190 = CLOSED_SHELL ( 'NONE', ( #199, #193, #95, #162, #21 ) ) ;
#191 = PERSON_AND_ORGANIZATION ( #92, #198 ) ;
#192 = EDGE_LOOP ( 'NONE', ( #61 ) ) ;
#193 = ADVANCED_FACE ( 'NONE', ( #43, #25 ), #178, .T. ) ;
#194 = PERSON_AND_ORGANIZATION ( #92, #198 ) ;
#195 = ADVANCED_BREP_SHAPE_REPRESENTATION ( '321705', ( #156, #237, #225 ), #16 ) ;
#196 = AXIS2_PLACEMENT_3D ( 'NONE', #177, #9, #82 ) ;
#197 = DIRECTION ( 'NONE',  ( 4.020730572833435889E-31, 1.000000000000000000, 1.131735044348113925E-16 ) ) ;
#198 = ORGANIZATION ( 'UNSPECIFIED', 'UNSPECIFIED', '' ) ;
#199 = ADVANCED_FACE ( 'NONE', ( #157 ), #234, .F. ) ;
#200 = DIRECTION ( 'NONE',  ( -3.491481338843133355E-15, 1.224646799147353207E-16, -1.000000000000000000 ) ) ;
#201 = DIRECTION ( 'NONE',  ( 0.0000000000000000000, 1.000000000000000000, 0.0000000000000000000 ) ) ;
#202 = FACE_OUTER_BOUND ( 'NONE', #128, .T. ) ;
#203 = CC_DESIGN_APPROVAL ( #45, ( #94 ) ) ;
#204 = CARTESIAN_POINT ( 'NONE',  ( -8.530283734564532341E-31, 2.992020766410440358E-32, -2.443170364298998135E-16 ) ) ;
#205 = APPLICATION_CONTEXT ( 'configuration controlled 3d designs of mechanical parts and assemblies' ) ;
#206 = APPROVAL_DATE_TIME ( #208, #175 ) ;
#207 = CC_DESIGN_PERSON_AND_ORGANIZATION_ASSIGNMENT ( #191, #18, ( #131 ) ) ;
#208 = DATE_AND_TIME ( #109, #168 ) ;
#209 = CC_DESIGN_PERSON_AND_ORGANIZATION_ASSIGNMENT ( #106, #239, ( #104 ) ) ;
#210 = AXIS2_PLACEMENT_3D ( 'NONE', #117, #217, #6 ) ;
#211 = APPROVAL_STATUS ( 'not_yet_approved' ) ;
#212 = ORIENTED_EDGE ( 'NONE', *, *, #110, .T. ) ;
#213 = ORIENTED_EDGE ( 'NONE', *, *, #122, .F. ) ;
#214 = DIRECTION ( 'NONE',  ( 4.275831445896958607E-31, 1.000000000000000000, 1.224646799147353207E-16 ) ) ;
#215 = CONICAL_SURFACE ( 'NONE', #229, 1.600000000000000977, 0.7853981633974512766 ) ;
#216 = DIRECTION ( 'NONE',  ( -3.491481338843133355E-15, 1.224646799147353207E-16, -1.000000000000000000 ) ) ;
#217 = DIRECTION ( 'NONE',  ( -3.491481338843133355E-15, 1.224646799147353207E-16, -1.000000000000000000 ) ) ;
#218 = DIRECTION ( 'NONE',  ( 3.491481338843133355E-15, -1.224646799147353207E-16, 1.000000000000000000 ) ) ;
#219 = DIRECTION ( 'NONE',  ( -4.275831445896958607E-31, -1.000000000000000000, -1.224646799147353207E-16 ) ) ;
#220 = PERSON_AND_ORGANIZATION ( #92, #198 ) ;
#221 = CARTESIAN_POINT ( 'NONE',  ( 4.428650817977698645E-14, 1.999999999999990452, 12.68416006898976178 ) ) ;
#222 = AXIS2_PLACEMENT_3D ( 'NONE', #154, #40, #159 ) ;
#223 = CARTESIAN_POINT ( 'NONE',  ( 4.189777606611760026E-14, 2.395000000000023554, 12.00000000000000000 ) ) ;
#224 = AXIS2_PLACEMENT_3D ( 'NONE', #66, #218, #44 ) ;
#225 = AXIS2_PLACEMENT_3D ( 'NONE', #73, #160, #17 ) ;
#226 = PRODUCT ( '321705', '321705', '', ( #69 ) ) ;
#227 = ORIENTED_EDGE ( 'NONE', *, *, #152, .T. ) ;
#228 = SHAPE_DEFINITION_REPRESENTATION ( #38, #195 ) ;
#229 = AXIS2_PLACEMENT_3D ( 'NONE', #137, #99, #174 ) ;
#230 = ORIENTED_EDGE ( 'NONE', *, *, #166, .F. ) ;
#231 = FACE_OUTER_BOUND ( 'NONE', #75, .T. ) ;
#232 = FACE_OUTER_BOUND ( 'NONE', #242, .T. ) ;
#233 = APPROVAL_PERSON_ORGANIZATION ( #194, #45, #93 ) ;
#234 = PLANE ( 'NONE',  #224 ) ;
#235 = CARTESIAN_POINT ( 'NONE',  ( 2.793185071074506684E-13, 1.199807826129472128E-32, 80.00000000000000000 ) ) ;
#236 = DIRECTION ( 'NONE',  ( 0.0000000000000000000, 1.000000000000000000, 0.0000000000000000000 ) ) ;
#237 = MANIFOLD_SOLID_BREP ( 'Corps-Déplacer/Copier1[2]', #147 ) ;
#238 = PERSON_AND_ORGANIZATION ( #92, #198 ) ;
#239 = PERSON_AND_ORGANIZATION_ROLE ( 'creator' ) ;
#240 =( NAMED_UNIT ( * ) SI_UNIT ( $, .STERADIAN. ) SOLID_ANGLE_UNIT ( ) );
#241 = PERSON_AND_ORGANIZATION ( #92, #198 ) ;
#242 = EDGE_LOOP ( 'NONE', ( #230 ) ) ;
#243 = ADVANCED_FACE ( 'NONE', ( #119, #202 ), #101, .T. ) ;
ENDSEC;
END-ISO-10303-21;
