ISO-10303-21;
HEADER;
FILE_DESCRIPTION (( 'STEP AP203' ),
    '1' );
FILE_NAME ('321704.step',
    '2021-12-02T12:56:43',
    ( '' ),
    ( '' ),
    'SwSTEP 2.0',
    'SolidWorks 2019',
    '' );
FILE_SCHEMA (( 'CONFIG_CONTROL_DESIGN' ));
ENDSEC;

DATA;
#1 = CARTESIAN_POINT ( 'NONE',  ( 4.425627106441421141E-14, 1.999999999999990452, 12.67549981495191780 ) ) ;
#2 = PERSON_AND_ORGANIZATION_ROLE ( 'creator' ) ;
#3 = ADVANCED_BREP_SHAPE_REPRESENTATION ( '321704', ( #238, #155, #108 ), #95 ) ;
#4 = CC_DESIGN_DATE_AND_TIME_ASSIGNMENT ( #7, #80, ( #206 ) ) ;
#5 = VERTEX_POINT ( 'NONE', #1 ) ;
#6 = APPROVAL_PERSON_ORGANIZATION ( #152, #77, #63 ) ;
#7 = DATE_AND_TIME ( #133, #128 ) ;
#8 = ORIENTED_EDGE ( 'NONE', *, *, #74, .T. ) ;
#9 = ORIENTED_EDGE ( 'NONE', *, *, #187, .F. ) ;
#10 = DATE_AND_TIME ( #175, #192 ) ;
#11 = DATE_TIME_ROLE ( 'classification_date' ) ;
#12 = EDGE_LOOP ( 'NONE', ( #228 ) ) ;
#13 = CARTESIAN_POINT ( 'NONE',  ( 2.793185071074506684E-13, -9.797174393178826052E-15, 80.00000000000000000 ) ) ;
#14 = DIRECTION ( 'NONE',  ( -4.275831445896958607E-31, -1.000000000000000000, -1.224646799147353207E-16 ) ) ;
#15 = DIRECTION ( 'NONE',  ( -3.491481338843133355E-15, 1.224646799147353207E-16, -1.000000000000000000 ) ) ;
#16 = FACE_OUTER_BOUND ( 'NONE', #201, .T. ) ;
#17 = CIRCLE ( 'NONE', #20, 2.000000000000000888 ) ;
#18 = DIRECTION ( 'NONE',  ( 0.0000000000000000000, 1.000000000000000000, 0.0000000000000000000 ) ) ;
#19 = DIRECTION ( 'NONE',  ( 0.0000000000000000000, 0.0000000000000000000, 1.000000000000000000 ) ) ;
#20 = AXIS2_PLACEMENT_3D ( 'NONE', #34, #219, #90 ) ;
#21 = APPROVAL_STATUS ( 'not_yet_approved' ) ;
#22 = CARTESIAN_POINT ( 'NONE',  ( 4.189777606611760026E-14, 2.390000000000023661, 12.00000000000000000 ) ) ;
#23 = CARTESIAN_POINT ( 'NONE',  ( 0.0000000000000000000, 0.0000000000000000000, 0.0000000000000000000 ) ) ;
#24 = AXIS2_PLACEMENT_3D ( 'NONE', #161, #216, #14 ) ;
#25 = CC_DESIGN_APPROVAL ( #226, ( #206 ) ) ;
#26 = PERSON_AND_ORGANIZATION_ROLE ( 'classification_officer' ) ;
#27 = CLOSED_SHELL ( 'NONE', ( #97, #86, #29, #48 ) ) ;
#28 = EDGE_LOOP ( 'NONE', ( #123 ) ) ;
#29 = ADVANCED_FACE ( 'NONE', ( #118 ), #196, .T. ) ;
#30 = EDGE_LOOP ( 'NONE', ( #154 ) ) ;
#31 = PLANE ( 'NONE',  #242 ) ;
#32 = DIRECTION ( 'NONE',  ( -3.491481338843133355E-15, 1.224646799147353207E-16, -1.000000000000000000 ) ) ;
#33 = DIRECTION ( 'NONE',  ( -3.491481338843133355E-15, 1.224646799147353207E-16, -1.000000000000000000 ) ) ;
#34 = CARTESIAN_POINT ( 'NONE',  ( 2.779219145719134403E-13, -9.748188521212932624E-15, 79.60000000000000853 ) ) ;
#35 = CIRCLE ( 'NONE', #169, 1.999999999999992228 ) ;
#36 = CARTESIAN_POINT ( 'NONE',  ( 4.189777606611760026E-14, 1.792212940280936482E-32, 12.00000000000000000 ) ) ;
#37 = CIRCLE ( 'NONE', #212, 2.390000000000024993 ) ;
#38 = CC_DESIGN_DATE_AND_TIME_ASSIGNMENT ( #135, #11, ( #183 ) ) ;
#39 = COORDINATED_UNIVERSAL_TIME_OFFSET ( 1, 0, .AHEAD. ) ;
#40 = CARTESIAN_POINT ( 'NONE',  ( 2.793185071074506684E-13, 1.599999999999991207, 80.00000000000000000 ) ) ;
#41 = PERSON_AND_ORGANIZATION ( #134, #43 ) ;
#42 = EDGE_CURVE ( 'NONE', #5, #5, #35, .T. ) ;
#43 = ORGANIZATION ( 'UNSPECIFIED', 'UNSPECIFIED', '' ) ;
#44 = APPLICATION_CONTEXT ( 'configuration controlled 3d designs of mechanical parts and assemblies' ) ;
#45 = PRODUCT_DEFINITION_FORMATION_WITH_SPECIFIED_SOURCE ( 'ANY', '', #116, .NOT_KNOWN. ) ;
#46 = PERSON_AND_ORGANIZATION ( #134, #43 ) ;
#47 = ORIENTED_EDGE ( 'NONE', *, *, #159, .F. ) ;
#48 = ADVANCED_FACE ( 'NONE', ( #109, #110 ), #208, .T. ) ;
#49 = APPROVAL_PERSON_ORGANIZATION ( #41, #226, #151 ) ;
#50 = SHAPE_DEFINITION_REPRESENTATION ( #119, #3 ) ;
#51 = EDGE_LOOP ( 'NONE', ( #8 ) ) ;
#52 = ADVANCED_FACE ( 'NONE', ( #59 ), #127, .F. ) ;
#53 = DIRECTION ( 'NONE',  ( 0.0000000000000000000, 1.000000000000000000, 0.0000000000000000000 ) ) ;
#54 = CONICAL_SURFACE ( 'NONE', #204, 1.600000000000000977, 0.7853981633974512766 ) ;
#55 = DIRECTION ( 'NONE',  ( 0.0000000000000000000, 1.000000000000000000, 0.0000000000000000000 ) ) ;
#56 = FACE_OUTER_BOUND ( 'NONE', #157, .T. ) ;
#57 = CARTESIAN_POINT ( 'NONE',  ( 2.793185071074506684E-13, 1.199807826129472128E-32, 80.00000000000000000 ) ) ;
#58 = CIRCLE ( 'NONE', #191, 2.390000000000024993 ) ;
#59 = FACE_OUTER_BOUND ( 'NONE', #83, .T. ) ;
#60 = APPROVAL_DATE_TIME ( #222, #77 ) ;
#61 = CARTESIAN_POINT ( 'NONE',  ( 4.189777606611760026E-14, 2.390000000000023661, 12.00000000000000000 ) ) ;
#62 = COORDINATED_UNIVERSAL_TIME_OFFSET ( 1, 0, .AHEAD. ) ;
#63 = APPROVAL_ROLE ( '' ) ;
#64 = PERSON_AND_ORGANIZATION ( #134, #43 ) ;
#65 = COORDINATED_UNIVERSAL_TIME_OFFSET ( 1, 0, .AHEAD. ) ;
#66 = AXIS2_PLACEMENT_3D ( 'NONE', #207, #236, #182 ) ;
#67 = AXIS2_PLACEMENT_3D ( 'NONE', #239, #15, #91 ) ;
#68 = EDGE_LOOP ( 'NONE', ( #156 ) ) ;
#69 = PRODUCT_RELATED_PRODUCT_CATEGORY ( 'detail', '', ( #116 ) ) ;
#70 = FACE_OUTER_BOUND ( 'NONE', #51, .T. ) ;
#71 = DIRECTION ( 'NONE',  ( 0.0000000000000000000, 1.000000000000000000, 0.0000000000000000000 ) ) ;
#72 = CYLINDRICAL_SURFACE ( 'NONE', #142, 1.999999999999996669 ) ;
#73 = CARTESIAN_POINT ( 'NONE',  ( 4.425627106441421141E-14, -1.552301027597373453E-15, 12.67549981495191780 ) ) ;
#74 = EDGE_CURVE ( 'NONE', #224, #224, #58, .T. ) ;
#75 = DIRECTION ( 'NONE',  ( 3.491481338843133355E-15, -1.224646799147353207E-16, 1.000000000000000000 ) ) ;
#76 = CARTESIAN_POINT ( 'NONE',  ( 1.396592535537251764E-15, 2.390000000000024993, 0.3999999999999995226 ) ) ;
#77 = APPROVAL ( #227, 'UNSPECIFIED' ) ;
#78 = DIRECTION ( 'NONE',  ( 4.029142143069489225E-31, 1.000000000000000000, 1.134102690884407085E-16 ) ) ;
#79 = AXIS2_PLACEMENT_3D ( 'NONE', #125, #163, #18 ) ;
#80 = DATE_TIME_ROLE ( 'creation_date' ) ;
#81 = CC_DESIGN_APPROVAL ( #140, ( #183 ) ) ;
#82 = SECURITY_CLASSIFICATION_LEVEL ( 'unclassified' ) ;
#83 = EDGE_LOOP ( 'NONE', ( #105 ) ) ;
#84 = DESIGN_CONTEXT ( 'detailed design', #44, 'design' ) ;
#85 = FACE_OUTER_BOUND ( 'NONE', #176, .T. ) ;
#86 = ADVANCED_FACE ( 'NONE', ( #85 ), #31, .T. ) ;
#87 = DIRECTION ( 'NONE',  ( 4.275831445896958607E-31, 1.000000000000000000, 1.224646799147353207E-16 ) ) ;
#88 = DIRECTION ( 'NONE',  ( -3.491481338843133355E-15, 1.224646799147353207E-16, -1.000000000000000000 ) ) ;
#89 = ADVANCED_FACE ( 'NONE', ( #112 ), #218, .F. ) ;
#90 = DIRECTION ( 'NONE',  ( 0.0000000000000000000, 1.000000000000000000, 0.0000000000000000000 ) ) ;
#91 = DIRECTION ( 'NONE',  ( 4.275831445896958607E-31, 1.000000000000000000, 1.224646799147353207E-16 ) ) ;
#92 = APPLICATION_CONTEXT ( 'configuration controlled 3d designs of mechanical parts and assemblies' ) ;
#93 = CARTESIAN_POINT ( 'NONE',  ( 0.0000000000000000000, 1.990000000000023528, 0.0000000000000000000 ) ) ;
#94 = DIRECTION ( 'NONE',  ( -3.491481338843133355E-15, 1.224646799147353207E-16, -1.000000000000000000 ) ) ;
#95 =( GEOMETRIC_REPRESENTATION_CONTEXT ( 3 ) GLOBAL_UNCERTAINTY_ASSIGNED_CONTEXT ( ( #229 ) ) GLOBAL_UNIT_ASSIGNED_CONTEXT ( ( #210, #98, #188 ) ) REPRESENTATION_CONTEXT ( 'NONE', 'WORKASPACE' ) );
#96 = DATE_AND_TIME ( #225, #146 ) ;
#97 = ADVANCED_FACE ( 'NONE', ( #70, #56 ), #240, .T. ) ;
#98 =( NAMED_UNIT ( * ) PLANE_ANGLE_UNIT ( ) SI_UNIT ( $, .RADIAN. ) );
#99 = AXIS2_PLACEMENT_3D ( 'NONE', #160, #33, #237 ) ;
#100 = ORIENTED_EDGE ( 'NONE', *, *, #198, .T. ) ;
#101 = EDGE_LOOP ( 'NONE', ( #100 ) ) ;
#102 = APPROVAL_STATUS ( 'not_yet_approved' ) ;
#103 = CLOSED_SHELL ( 'NONE', ( #52, #148, #184, #106, #89 ) ) ;
#104 = EDGE_LOOP ( 'NONE', ( #120 ) ) ;
#105 = ORIENTED_EDGE ( 'NONE', *, *, #111, .T. ) ;
#106 = ADVANCED_FACE ( 'NONE', ( #185, #107 ), #54, .T. ) ;
#107 = FACE_BOUND ( 'NONE', #101, .T. ) ;
#108 = AXIS2_PLACEMENT_3D ( 'NONE', #23, #19, #147 ) ;
#109 = FACE_OUTER_BOUND ( 'NONE', #202, .T. ) ;
#110 = FACE_BOUND ( 'NONE', #174, .T. ) ;
#111 = EDGE_CURVE ( 'NONE', #186, #186, #232, .T. ) ;
#112 = FACE_OUTER_BOUND ( 'NONE', #28, .T. ) ;
#113 = CARTESIAN_POINT ( 'NONE',  ( 0.0000000000000000000, 0.0000000000000000000, 0.0000000000000000000 ) ) ;
#114 = COORDINATED_UNIVERSAL_TIME_OFFSET ( 1, 0, .AHEAD. ) ;
#115 = CC_DESIGN_APPROVAL ( #77, ( #45 ) ) ;
#116 = PRODUCT ( '321704', '321704', '', ( #213 ) ) ;
#117 = CALENDAR_DATE ( 2021, 2, 12 ) ;
#118 = FACE_OUTER_BOUND ( 'NONE', #68, .T. ) ;
#119 = PRODUCT_DEFINITION_SHAPE ( 'NONE', 'NONE',  #206 ) ;
#120 = ORIENTED_EDGE ( 'NONE', *, *, #42, .T. ) ;
#121 = AXIS2_PLACEMENT_3D ( 'NONE', #113, #177, #87 ) ;
#122 = PERSON_AND_ORGANIZATION_ROLE ( 'design_supplier' ) ;
#123 = ORIENTED_EDGE ( 'NONE', *, *, #198, .F. ) ;
#124 = DIRECTION ( 'NONE',  ( 4.275831445896958607E-31, 1.000000000000000000, 1.224646799147353207E-16 ) ) ;
#125 = CARTESIAN_POINT ( 'NONE',  ( 4.189777606611760026E-14, -1.469576158976823947E-15, 12.00000000000000000 ) ) ;
#126 = FACE_BOUND ( 'NONE', #104, .T. ) ;
#127 = PLANE ( 'NONE',  #66 ) ;
#128 = LOCAL_TIME ( 13, 56, 43.00000000000000000, #62 ) ;
#129 = CARTESIAN_POINT ( 'NONE',  ( 2.793185071074506684E-13, -9.797174393178826052E-15, 80.00000000000000000 ) ) ;
#130 = VERTEX_POINT ( 'NONE', #76 ) ;
#131 = PERSON_AND_ORGANIZATION ( #134, #43 ) ;
#132 = VERTEX_POINT ( 'NONE', #93 ) ;
#133 = CALENDAR_DATE ( 2021, 2, 12 ) ;
#134 = PERSON ( 'UNSPECIFIED', 'UNSPECIFIED', 'UNSPECIFIED', ('UNSPECIFIED'), ('UNSPECIFIED'), ('UNSPECIFIED') ) ;
#135 = DATE_AND_TIME ( #117, #209 ) ;
#136 = AXIS2_PLACEMENT_3D ( 'NONE', #57, #235, #124 ) ;
#137 = ORIENTED_EDGE ( 'NONE', *, *, #234, .T. ) ;
#138 = CONICAL_SURFACE ( 'NONE', #99, 2.390000000000024993, 0.5235987755982993708 ) ;
#139 = DIRECTION ( 'NONE',  ( 0.0000000000000000000, 1.000000000000000000, 0.0000000000000000000 ) ) ;
#140 = APPROVAL ( #102, 'UNSPECIFIED' ) ;
#141 = FACE_OUTER_BOUND ( 'NONE', #12, .T. ) ;
#142 = AXIS2_PLACEMENT_3D ( 'NONE', #143, #217, #205 ) ;
#143 = CARTESIAN_POINT ( 'NONE',  ( 0.0000000000000000000, 0.0000000000000000000, 0.0000000000000000000 ) ) ;
#144 = DIRECTION ( 'NONE',  ( -3.491481338843133355E-15, 1.224646799147353207E-16, -1.000000000000000000 ) ) ;
#145 = CARTESIAN_POINT ( 'NONE',  ( -4.254452288667523814E-31, 1.492260983748566055E-32, -1.218523565151630876E-16 ) ) ;
#146 = LOCAL_TIME ( 13, 56, 43.00000000000000000, #114 ) ;
#147 = DIRECTION ( 'NONE',  ( 1.000000000000000000, 0.0000000000000000000, 0.0000000000000000000 ) ) ;
#148 = ADVANCED_FACE ( 'NONE', ( #126, #16 ), #138, .T. ) ;
#149 = CARTESIAN_POINT ( 'NONE',  ( 1.396592535537250778E-15, -4.898587196589403831E-17, 0.3999999999999992450 ) ) ;
#150 = CIRCLE ( 'NONE', #170, 1.600000000000000977 ) ;
#151 = APPROVAL_ROLE ( '' ) ;
#152 = PERSON_AND_ORGANIZATION ( #134, #43 ) ;
#153 = EDGE_LOOP ( 'NONE', ( #9 ) ) ;
#154 = ORIENTED_EDGE ( 'NONE', *, *, #42, .F. ) ;
#155 = MANIFOLD_SOLID_BREP ( 'Corps-Déplacer/Copier1[2]', #27 ) ;
#156 = ORIENTED_EDGE ( 'NONE', *, *, #159, .T. ) ;
#157 = EDGE_LOOP ( 'NONE', ( #172 ) ) ;
#158 = CARTESIAN_POINT ( 'NONE',  ( 4.189777606611760026E-14, -1.469576158976823947E-15, 12.00000000000000000 ) ) ;
#159 = EDGE_CURVE ( 'NONE', #132, #132, #220, .T. ) ;
#160 = CARTESIAN_POINT ( 'NONE',  ( 4.189777606611760026E-14, -1.469576158976823947E-15, 12.00000000000000000 ) ) ;
#161 = CARTESIAN_POINT ( 'NONE',  ( -8.508904577335047627E-31, 2.984521967497132110E-32, -2.437047130303261752E-16 ) ) ;
#162 = AXIS2_PLACEMENT_3D ( 'NONE', #145, #88, #180 ) ;
#163 = DIRECTION ( 'NONE',  ( -3.491481338843133355E-15, 1.224646799147353207E-16, -1.000000000000000000 ) ) ;
#164 = FACE_OUTER_BOUND ( 'NONE', #30, .T. ) ;
#165 = CALENDAR_DATE ( 2021, 2, 12 ) ;
#166 = CC_DESIGN_SECURITY_CLASSIFICATION ( #183, ( #45 ) ) ;
#167 = APPLICATION_PROTOCOL_DEFINITION ( 'international standard', 'config_control_design', 1994, #92 ) ;
#168 = APPROVAL_DATE_TIME ( #96, #226 ) ;
#169 = AXIS2_PLACEMENT_3D ( 'NONE', #73, #144, #55 ) ;
#170 = AXIS2_PLACEMENT_3D ( 'NONE', #13, #215, #53 ) ;
#171 = VERTEX_POINT ( 'NONE', #223 ) ;
#172 = ORIENTED_EDGE ( 'NONE', *, *, #234, .F. ) ;
#173 = CC_DESIGN_PERSON_AND_ORGANIZATION_ASSIGNMENT ( #46, #195, ( #45 ) ) ;
#174 = EDGE_LOOP ( 'NONE', ( #47 ) ) ;
#175 = CALENDAR_DATE ( 2021, 2, 12 ) ;
#176 = EDGE_LOOP ( 'NONE', ( #233 ) ) ;
#177 = DIRECTION ( 'NONE',  ( -3.491481338843133355E-15, 1.224646799147353207E-16, -1.000000000000000000 ) ) ;
#178 = CC_DESIGN_PERSON_AND_ORGANIZATION_ASSIGNMENT ( #189, #2, ( #206 ) ) ;
#179 = LOCAL_TIME ( 13, 56, 43.00000000000000000, #39 ) ;
#180 = DIRECTION ( 'NONE',  ( 4.275831445896958607E-31, 1.000000000000000000, 1.224646799147353207E-16 ) ) ;
#181 = DIRECTION ( 'NONE',  ( -3.491481338843133355E-15, 1.224646799147353207E-16, -1.000000000000000000 ) ) ;
#182 = DIRECTION ( 'NONE',  ( -4.275831445896958607E-31, -1.000000000000000000, -1.224646799147353207E-16 ) ) ;
#183 = SECURITY_CLASSIFICATION ( '', '', #82 ) ;
#184 = ADVANCED_FACE ( 'NONE', ( #164, #141 ), #72, .T. ) ;
#185 = FACE_OUTER_BOUND ( 'NONE', #153, .T. ) ;
#186 = VERTEX_POINT ( 'NONE', #61 ) ;
#187 = EDGE_CURVE ( 'NONE', #171, #171, #17, .T. ) ;
#188 =( NAMED_UNIT ( * ) SI_UNIT ( $, .STERADIAN. ) SOLID_ANGLE_UNIT ( ) );
#189 = PERSON_AND_ORGANIZATION ( #134, #43 ) ;
#190 = PERSON_AND_ORGANIZATION_ROLE ( 'design_owner' ) ;
#191 = AXIS2_PLACEMENT_3D ( 'NONE', #158, #181, #71 ) ;
#192 = LOCAL_TIME ( 13, 56, 43.00000000000000000, #194 ) ;
#193 = CC_DESIGN_PERSON_AND_ORGANIZATION_ASSIGNMENT ( #199, #122, ( #45 ) ) ;
#194 = COORDINATED_UNIVERSAL_TIME_OFFSET ( 1, 0, .AHEAD. ) ;
#195 = PERSON_AND_ORGANIZATION_ROLE ( 'creator' ) ;
#196 = PLANE ( 'NONE',  #162 ) ;
#197 = ORIENTED_EDGE ( 'NONE', *, *, #111, .F. ) ;
#198 = EDGE_CURVE ( 'NONE', #241, #241, #150, .T. ) ;
#199 = PERSON_AND_ORGANIZATION ( #134, #43 ) ;
#200 = APPROVAL_ROLE ( '' ) ;
#201 = EDGE_LOOP ( 'NONE', ( #197 ) ) ;
#202 = EDGE_LOOP ( 'NONE', ( #137 ) ) ;
#203 = DIRECTION ( 'NONE',  ( -4.275831445896958607E-31, -1.000000000000000000, -1.224646799147353207E-16 ) ) ;
#204 = AXIS2_PLACEMENT_3D ( 'NONE', #129, #32, #139 ) ;
#205 = DIRECTION ( 'NONE',  ( 4.275831445896958607E-31, 1.000000000000000000, 1.224646799147353207E-16 ) ) ;
#206 = PRODUCT_DEFINITION ( 'UNKNOWN', '', #45, #84 ) ;
#207 = CARTESIAN_POINT ( 'NONE',  ( 4.189777606611760026E-14, 1.792212940280936482E-32, 12.00000000000000000 ) ) ;
#208 = CONICAL_SURFACE ( 'NONE', #24, 1.990000000000023528, 0.7853981633974508325 ) ;
#209 = LOCAL_TIME ( 13, 56, 43.00000000000000000, #65 ) ;
#210 =( LENGTH_UNIT ( ) NAMED_UNIT ( * ) SI_UNIT ( .MILLI., .METRE. ) );
#211 = APPLICATION_PROTOCOL_DEFINITION ( 'international standard', 'config_control_design', 1994, #44 ) ;
#212 = AXIS2_PLACEMENT_3D ( 'NONE', #149, #94, #78 ) ;
#213 = MECHANICAL_CONTEXT ( 'NONE', #92, 'mechanical' ) ;
#214 = PERSON_AND_ORGANIZATION ( #134, #43 ) ;
#215 = DIRECTION ( 'NONE',  ( -3.491481338843133355E-15, 1.224646799147353207E-16, -1.000000000000000000 ) ) ;
#216 = DIRECTION ( 'NONE',  ( 3.491481338843133355E-15, -1.224646799147353207E-16, 1.000000000000000000 ) ) ;
#217 = DIRECTION ( 'NONE',  ( -3.491481338843133355E-15, 1.224646799147353207E-16, -1.000000000000000000 ) ) ;
#218 = PLANE ( 'NONE',  #136 ) ;
#219 = DIRECTION ( 'NONE',  ( -3.491481338843133355E-15, 1.224646799147353207E-16, -1.000000000000000000 ) ) ;
#220 = CIRCLE ( 'NONE', #67, 1.990000000000023528 ) ;
#221 = CC_DESIGN_PERSON_AND_ORGANIZATION_ASSIGNMENT ( #214, #26, ( #183 ) ) ;
#222 = DATE_AND_TIME ( #165, #179 ) ;
#223 = CARTESIAN_POINT ( 'NONE',  ( 2.779219145719134403E-13, 1.999999999999991340, 79.60000000000000853 ) ) ;
#224 = VERTEX_POINT ( 'NONE', #22 ) ;
#225 = CALENDAR_DATE ( 2021, 2, 12 ) ;
#226 = APPROVAL ( #21, 'UNSPECIFIED' ) ;
#227 = APPROVAL_STATUS ( 'not_yet_approved' ) ;
#228 = ORIENTED_EDGE ( 'NONE', *, *, #187, .T. ) ;
#229 = UNCERTAINTY_MEASURE_WITH_UNIT (LENGTH_MEASURE( 1.000000000000000082E-05 ), #210, 'distance_accuracy_value', 'NONE');
#230 = CC_DESIGN_PERSON_AND_ORGANIZATION_ASSIGNMENT ( #131, #190, ( #116 ) ) ;
#231 = APPROVAL_DATE_TIME ( #10, #140 ) ;
#232 = CIRCLE ( 'NONE', #79, 2.390000000000024993 ) ;
#233 = ORIENTED_EDGE ( 'NONE', *, *, #74, .F. ) ;
#234 = EDGE_CURVE ( 'NONE', #130, #130, #37, .T. ) ;
#235 = DIRECTION ( 'NONE',  ( -3.491481338843133355E-15, 1.224646799147353207E-16, -1.000000000000000000 ) ) ;
#236 = DIRECTION ( 'NONE',  ( 3.491481338843133355E-15, -1.224646799147353207E-16, 1.000000000000000000 ) ) ;
#237 = DIRECTION ( 'NONE',  ( 0.0000000000000000000, 1.000000000000000000, 0.0000000000000000000 ) ) ;
#238 = MANIFOLD_SOLID_BREP ( 'Corps-Déplacer/Copier1[1]', #103 ) ;
#239 = CARTESIAN_POINT ( 'NONE',  ( -8.508904577335047627E-31, 2.984521967497132110E-32, -2.437047130303261752E-16 ) ) ;
#240 = CYLINDRICAL_SURFACE ( 'NONE', #121, 2.390000000000024993 ) ;
#241 = VERTEX_POINT ( 'NONE', #40 ) ;
#242 = AXIS2_PLACEMENT_3D ( 'NONE', #36, #75, #203 ) ;
#243 = APPROVAL_PERSON_ORGANIZATION ( #64, #140, #200 ) ;
ENDSEC;
END-ISO-10303-21;
