ISO-10303-21;
HEADER;
FILE_DESCRIPTION (( 'STEP AP203' ),
    '1' );
FILE_NAME ('321703.step',
    '2021-12-02T12:56:42',
    ( '' ),
    ( '' ),
    'SwSTEP 2.0',
    'SolidWorks 2019',
    '' );
FILE_SCHEMA (( 'CONFIG_CONTROL_DESIGN' ));
ENDSEC;

DATA;
#1 = COORDINATED_UNIVERSAL_TIME_OFFSET ( 1, 0, .AHEAD. ) ;
#2 = CARTESIAN_POINT ( 'NONE',  ( 2.793185071074506684E-13, 1.599999999999991207, 80.00000000000000000 ) ) ;
#3 =( LENGTH_UNIT ( ) NAMED_UNIT ( * ) SI_UNIT ( .MILLI., .METRE. ) );
#4 = ORIENTED_EDGE ( 'NONE', *, *, #239, .F. ) ;
#5 = CC_DESIGN_PERSON_AND_ORGANIZATION_ASSIGNMENT ( #203, #231, ( #44 ) ) ;
#6 = CC_DESIGN_APPROVAL ( #233, ( #210 ) ) ;
#7 = COORDINATED_UNIVERSAL_TIME_OFFSET ( 1, 0, .AHEAD. ) ;
#8 = EDGE_LOOP ( 'NONE', ( #102 ) ) ;
#9 = ADVANCED_FACE ( 'NONE', ( #221, #110 ), #161, .T. ) ;
#10 = PERSON ( 'UNSPECIFIED', 'UNSPECIFIED', 'UNSPECIFIED', ('UNSPECIFIED'), ('UNSPECIFIED'), ('UNSPECIFIED') ) ;
#11 = DATE_TIME_ROLE ( 'classification_date' ) ;
#12 = CONICAL_SURFACE ( 'NONE', #168, 1.985000000000018971, 0.7853981633974504994 ) ;
#13 = AXIS2_PLACEMENT_3D ( 'NONE', #21, #141, #37 ) ;
#14 = EDGE_LOOP ( 'NONE', ( #191 ) ) ;
#15 = DIRECTION ( 'NONE',  ( -4.275831445896958607E-31, -1.000000000000000000, -1.224646799147353207E-16 ) ) ;
#16 = EDGE_CURVE ( 'NONE', #43, #43, #170, .T. ) ;
#17 = CARTESIAN_POINT ( 'NONE',  ( 2.793185071074506684E-13, 1.199807826129472128E-32, 80.00000000000000000 ) ) ;
#18 = CARTESIAN_POINT ( 'NONE',  ( 2.793185071074506684E-13, -9.797174393178826052E-15, 80.00000000000000000 ) ) ;
#19 = CIRCLE ( 'NONE', #109, 1.999999999999992228 ) ;
#20 = DIRECTION ( 'NONE',  ( 3.491481338843133355E-15, -1.224646799147353207E-16, 1.000000000000000000 ) ) ;
#21 = CARTESIAN_POINT ( 'NONE',  ( 4.189777606611760026E-14, -1.469576158976823947E-15, 12.00000000000000000 ) ) ;
#22 = VERTEX_POINT ( 'NONE', #95 ) ;
#23 = CIRCLE ( 'NONE', #82, 2.385000000000020215 ) ;
#24 = CARTESIAN_POINT ( 'NONE',  ( 4.189777606611760026E-14, 2.385000000000018883, 12.00000000000000000 ) ) ;
#25 = VERTEX_POINT ( 'NONE', #27 ) ;
#26 = ORIENTED_EDGE ( 'NONE', *, *, #160, .T. ) ;
#27 = CARTESIAN_POINT ( 'NONE',  ( 4.189777606611760026E-14, 2.385000000000018883, 12.00000000000000000 ) ) ;
#28 = PERSON_AND_ORGANIZATION ( #10, #66 ) ;
#29 = PERSON_AND_ORGANIZATION ( #10, #66 ) ;
#30 = ORIENTED_EDGE ( 'NONE', *, *, #16, .F. ) ;
#31 =( GEOMETRIC_REPRESENTATION_CONTEXT ( 3 ) GLOBAL_UNCERTAINTY_ASSIGNED_CONTEXT ( ( #182 ) ) GLOBAL_UNIT_ASSIGNED_CONTEXT ( ( #3, #127, #97 ) ) REPRESENTATION_CONTEXT ( 'NONE', 'WORKASPACE' ) );
#32 = ADVANCED_FACE ( 'NONE', ( #166 ), #126, .T. ) ;
#33 = DIRECTION ( 'NONE',  ( -4.275831445896958607E-31, -1.000000000000000000, -1.224646799147353207E-16 ) ) ;
#34 = FACE_BOUND ( 'NONE', #208, .T. ) ;
#35 = CARTESIAN_POINT ( 'NONE',  ( 0.0000000000000000000, 0.0000000000000000000, 0.0000000000000000000 ) ) ;
#36 = CARTESIAN_POINT ( 'NONE',  ( -8.487525420105543645E-31, 2.977023168583816199E-32, -2.430923896307518960E-16 ) ) ;
#37 = DIRECTION ( 'NONE',  ( 0.0000000000000000000, 1.000000000000000000, 0.0000000000000000000 ) ) ;
#38 = APPROVAL_STATUS ( 'not_yet_approved' ) ;
#39 = APPROVAL ( #100, 'UNSPECIFIED' ) ;
#40 = APPROVAL_STATUS ( 'not_yet_approved' ) ;
#41 = EDGE_LOOP ( 'NONE', ( #30 ) ) ;
#42 = COORDINATED_UNIVERSAL_TIME_OFFSET ( 1, 0, .AHEAD. ) ;
#43 = VERTEX_POINT ( 'NONE', #59 ) ;
#44 = PRODUCT ( '321703', '321703', '', ( #151 ) ) ;
#45 = AXIS2_PLACEMENT_3D ( 'NONE', #76, #192, #112 ) ;
#46 = APPLICATION_CONTEXT ( 'configuration controlled 3d designs of mechanical parts and assemblies' ) ;
#47 = CARTESIAN_POINT ( 'NONE',  ( 1.396592535537251567E-15, -4.898587196589406296E-17, 0.3999999999999994671 ) ) ;
#48 = DIRECTION ( 'NONE',  ( -3.491481338843133355E-15, 1.224646799147353207E-16, -1.000000000000000000 ) ) ;
#49 = AXIS2_PLACEMENT_3D ( 'NONE', #198, #106, #87 ) ;
#50 = DIRECTION ( 'NONE',  ( -3.491481338843133355E-15, 1.224646799147353207E-16, -1.000000000000000000 ) ) ;
#51 = CARTESIAN_POINT ( 'NONE',  ( 4.189777606611760026E-14, -1.469576158976823947E-15, 12.00000000000000000 ) ) ;
#52 = CARTESIAN_POINT ( 'NONE',  ( 4.189777606611760026E-14, 1.788463540824278800E-32, 12.00000000000000000 ) ) ;
#53 = PRODUCT_RELATED_PRODUCT_CATEGORY ( 'detail', '', ( #44 ) ) ;
#54 = APPLICATION_PROTOCOL_DEFINITION ( 'international standard', 'config_control_design', 1994, #226 ) ;
#55 = DATE_AND_TIME ( #172, #159 ) ;
#56 = EDGE_LOOP ( 'NONE', ( #4 ) ) ;
#57 = EDGE_LOOP ( 'NONE', ( #177 ) ) ;
#58 = LOCAL_TIME ( 13, 56, 42.00000000000000000, #42 ) ;
#59 = CARTESIAN_POINT ( 'NONE',  ( 0.0000000000000000000, 1.985000000000018971, 0.0000000000000000000 ) ) ;
#60 = CALENDAR_DATE ( 2021, 2, 12 ) ;
#61 = APPROVAL_DATE_TIME ( #55, #187 ) ;
#62 = ADVANCED_FACE ( 'NONE', ( #145, #125 ), #12, .T. ) ;
#63 = AXIS2_PLACEMENT_3D ( 'NONE', #35, #50, #86 ) ;
#64 = PRODUCT_DEFINITION_SHAPE ( 'NONE', 'NONE',  #210 ) ;
#65 = SHAPE_DEFINITION_REPRESENTATION ( #64, #217 ) ;
#66 = ORGANIZATION ( 'UNSPECIFIED', 'UNSPECIFIED', '' ) ;
#67 = CARTESIAN_POINT ( 'NONE',  ( -4.243762710052771823E-31, 1.488511584291908099E-32, -1.215461948153759480E-16 ) ) ;
#68 = FACE_OUTER_BOUND ( 'NONE', #84, .T. ) ;
#69 = DIRECTION ( 'NONE',  ( -3.491481338843133355E-15, 1.224646799147353207E-16, -1.000000000000000000 ) ) ;
#70 = AXIS2_PLACEMENT_3D ( 'NONE', #52, #20, #33 ) ;
#71 = DIRECTION ( 'NONE',  ( -4.275831445896958607E-31, -1.000000000000000000, -1.224646799147352961E-16 ) ) ;
#72 = FACE_OUTER_BOUND ( 'NONE', #56, .T. ) ;
#73 = CC_DESIGN_DATE_AND_TIME_ASSIGNMENT ( #224, #114, ( #210 ) ) ;
#74 = DIRECTION ( 'NONE',  ( 0.0000000000000000000, 1.000000000000000000, 0.0000000000000000000 ) ) ;
#75 = CIRCLE ( 'NONE', #215, 2.385000000000020215 ) ;
#76 = CARTESIAN_POINT ( 'NONE',  ( 0.0000000000000000000, 0.0000000000000000000, 0.0000000000000000000 ) ) ;
#77 = VERTEX_POINT ( 'NONE', #132 ) ;
#78 = ORIENTED_EDGE ( 'NONE', *, *, #16, .T. ) ;
#79 = AXIS2_PLACEMENT_3D ( 'NONE', #220, #199, #241 ) ;
#80 = APPROVAL_ROLE ( '' ) ;
#81 = CC_DESIGN_DATE_AND_TIME_ASSIGNMENT ( #209, #11, ( #196 ) ) ;
#82 = AXIS2_PLACEMENT_3D ( 'NONE', #51, #186, #163 ) ;
#83 = SECURITY_CLASSIFICATION_LEVEL ( 'unclassified' ) ;
#84 = EDGE_LOOP ( 'NONE', ( #117 ) ) ;
#85 = CLOSED_SHELL ( 'NONE', ( #9, #134, #32, #62 ) ) ;
#86 = DIRECTION ( 'NONE',  ( 4.275831445896958607E-31, 1.000000000000000000, 1.224646799147353207E-16 ) ) ;
#87 = DIRECTION ( 'NONE',  ( 0.0000000000000000000, 1.000000000000000000, 0.0000000000000000000 ) ) ;
#88 = DESIGN_CONTEXT ( 'detailed design', #226, 'design' ) ;
#89 = DIRECTION ( 'NONE',  ( -3.491481338843133355E-15, 1.224646799147353207E-16, -1.000000000000000000 ) ) ;
#90 = LOCAL_TIME ( 13, 56, 42.00000000000000000, #1 ) ;
#91 = DIRECTION ( 'NONE',  ( -3.491481338843133355E-15, 1.224646799147353207E-16, -1.000000000000000000 ) ) ;
#92 = DIRECTION ( 'NONE',  ( 0.0000000000000000000, 1.000000000000000000, 0.0000000000000000000 ) ) ;
#93 = VERTEX_POINT ( 'NONE', #2 ) ;
#94 = CLOSED_SHELL ( 'NONE', ( #175, #195, #119, #240, #158 ) ) ;
#95 = CARTESIAN_POINT ( 'NONE',  ( 1.396592535537252553E-15, 2.385000000000020215, 0.3999999999999997446 ) ) ;
#96 = EDGE_LOOP ( 'NONE', ( #152 ) ) ;
#97 =( NAMED_UNIT ( * ) SI_UNIT ( $, .STERADIAN. ) SOLID_ANGLE_UNIT ( ) );
#98 = CIRCLE ( 'NONE', #137, 1.600000000000000977 ) ;
#99 = CC_DESIGN_PERSON_AND_ORGANIZATION_ASSIGNMENT ( #133, #136, ( #237 ) ) ;
#100 = APPROVAL_STATUS ( 'not_yet_approved' ) ;
#101 = DATE_AND_TIME ( #212, #229 ) ;
#102 = ORIENTED_EDGE ( 'NONE', *, *, #235, .T. ) ;
#103 = LOCAL_TIME ( 13, 56, 42.00000000000000000, #155 ) ;
#104 = CYLINDRICAL_SURFACE ( 'NONE', #79, 1.999999999999996669 ) ;
#105 = CC_DESIGN_APPROVAL ( #187, ( #237 ) ) ;
#106 = DIRECTION ( 'NONE',  ( -3.491481338843133355E-15, 1.224646799147353207E-16, -1.000000000000000000 ) ) ;
#107 = DIRECTION ( 'NONE',  ( 0.0000000000000000000, 1.000000000000000000, 0.0000000000000000000 ) ) ;
#108 = FACE_OUTER_BOUND ( 'NONE', #57, .T. ) ;
#109 = AXIS2_PLACEMENT_3D ( 'NONE', #162, #69, #143 ) ;
#110 = FACE_OUTER_BOUND ( 'NONE', #14, .T. ) ;
#111 = DATE_AND_TIME ( #128, #58 ) ;
#112 = DIRECTION ( 'NONE',  ( 1.000000000000000000, 0.0000000000000000000, 0.0000000000000000000 ) ) ;
#113 = AXIS2_PLACEMENT_3D ( 'NONE', #17, #121, #216 ) ;
#114 = DATE_TIME_ROLE ( 'creation_date' ) ;
#115 = EDGE_LOOP ( 'NONE', ( #78 ) ) ;
#116 = CC_DESIGN_PERSON_AND_ORGANIZATION_ASSIGNMENT ( #169, #205, ( #210 ) ) ;
#117 = ORIENTED_EDGE ( 'NONE', *, *, #201, .F. ) ;
#118 = CC_DESIGN_APPROVAL ( #39, ( #196 ) ) ;
#119 = ADVANCED_FACE ( 'NONE', ( #72, #200 ), #104, .T. ) ;
#120 = PLANE ( 'NONE',  #70 ) ;
#121 = DIRECTION ( 'NONE',  ( -3.491481338843133355E-15, 1.224646799147353207E-16, -1.000000000000000000 ) ) ;
#122 = AXIS2_PLACEMENT_3D ( 'NONE', #67, #91, #197 ) ;
#123 = CONICAL_SURFACE ( 'NONE', #13, 2.385000000000020215, 0.5235987755983003700 ) ;
#124 = FACE_OUTER_BOUND ( 'NONE', #213, .T. ) ;
#125 = FACE_BOUND ( 'NONE', #41, .T. ) ;
#126 = PLANE ( 'NONE',  #122 ) ;
#127 =( NAMED_UNIT ( * ) PLANE_ANGLE_UNIT ( ) SI_UNIT ( $, .RADIAN. ) );
#128 = CALENDAR_DATE ( 2021, 2, 12 ) ;
#129 = ORIENTED_EDGE ( 'NONE', *, *, #139, .T. ) ;
#130 = PERSON_AND_ORGANIZATION ( #10, #66 ) ;
#131 = ORIENTED_EDGE ( 'NONE', *, *, #201, .T. ) ;
#132 = CARTESIAN_POINT ( 'NONE',  ( 4.422603394905140481E-14, 1.999999999999990452, 12.66683956091406493 ) ) ;
#133 = PERSON_AND_ORGANIZATION ( #10, #66 ) ;
#134 = ADVANCED_FACE ( 'NONE', ( #108 ), #120, .T. ) ;
#135 = CC_DESIGN_SECURITY_CLASSIFICATION ( #196, ( #237 ) ) ;
#136 = PERSON_AND_ORGANIZATION_ROLE ( 'design_supplier' ) ;
#137 = AXIS2_PLACEMENT_3D ( 'NONE', #18, #218, #92 ) ;
#138 = CC_DESIGN_PERSON_AND_ORGANIZATION_ASSIGNMENT ( #29, #234, ( #237 ) ) ;
#139 = EDGE_CURVE ( 'NONE', #25, #25, #23, .T. ) ;
#140 = DIRECTION ( 'NONE',  ( 3.491481338843133355E-15, -1.224646799147353207E-16, 1.000000000000000000 ) ) ;
#141 = DIRECTION ( 'NONE',  ( -3.491481338843133355E-15, 1.224646799147353207E-16, -1.000000000000000000 ) ) ;
#142 = MANIFOLD_SOLID_BREP ( 'Corps-Déplacer/Copier1[1]', #94 ) ;
#143 = DIRECTION ( 'NONE',  ( 0.0000000000000000000, 1.000000000000000000, 0.0000000000000000000 ) ) ;
#144 = APPROVAL_PERSON_ORGANIZATION ( #130, #233, #207 ) ;
#145 = FACE_OUTER_BOUND ( 'NONE', #157, .T. ) ;
#146 = FACE_OUTER_BOUND ( 'NONE', #214, .T. ) ;
#147 = VERTEX_POINT ( 'NONE', #227 ) ;
#148 = CONICAL_SURFACE ( 'NONE', #194, 1.600000000000000977, 0.7853981633974512766 ) ;
#149 = CALENDAR_DATE ( 2021, 2, 12 ) ;
#150 = APPLICATION_PROTOCOL_DEFINITION ( 'international standard', 'config_control_design', 1994, #46 ) ;
#151 = MECHANICAL_CONTEXT ( 'NONE', #46, 'mechanical' ) ;
#152 = ORIENTED_EDGE ( 'NONE', *, *, #139, .F. ) ;
#153 = AXIS2_PLACEMENT_3D ( 'NONE', #242, #165, #107 ) ;
#154 = CARTESIAN_POINT ( 'NONE',  ( 2.793185071074506684E-13, -9.797174393178826052E-15, 80.00000000000000000 ) ) ;
#155 = COORDINATED_UNIVERSAL_TIME_OFFSET ( 1, 0, .AHEAD. ) ;
#156 = APPROVAL_DATE_TIME ( #101, #39 ) ;
#157 = EDGE_LOOP ( 'NONE', ( #228 ) ) ;
#158 = ADVANCED_FACE ( 'NONE', ( #68 ), #184, .F. ) ;
#159 = LOCAL_TIME ( 13, 56, 42.00000000000000000, #225 ) ;
#160 = EDGE_CURVE ( 'NONE', #176, #176, #171, .T. ) ;
#161 = CYLINDRICAL_SURFACE ( 'NONE', #63, 2.385000000000020215 ) ;
#162 = CARTESIAN_POINT ( 'NONE',  ( 4.422603394905140481E-14, -1.551240452358647422E-15, 12.66683956091406493 ) ) ;
#163 = DIRECTION ( 'NONE',  ( 0.0000000000000000000, 1.000000000000000000, 0.0000000000000000000 ) ) ;
#164 = CIRCLE ( 'NONE', #49, 2.000000000000000888 ) ;
#165 = DIRECTION ( 'NONE',  ( -3.491481338843133355E-15, 1.224646799147353207E-16, -1.000000000000000000 ) ) ;
#166 = FACE_OUTER_BOUND ( 'NONE', #115, .T. ) ;
#167 = CC_DESIGN_PERSON_AND_ORGANIZATION_ASSIGNMENT ( #179, #238, ( #196 ) ) ;
#168 = AXIS2_PLACEMENT_3D ( 'NONE', #243, #140, #71 ) ;
#169 = PERSON_AND_ORGANIZATION ( #10, #66 ) ;
#170 = CIRCLE ( 'NONE', #236, 1.985000000000018971 ) ;
#171 = CIRCLE ( 'NONE', #153, 2.385000000000020215 ) ;
#172 = CALENDAR_DATE ( 2021, 2, 12 ) ;
#173 = FACE_BOUND ( 'NONE', #174, .T. ) ;
#174 = EDGE_LOOP ( 'NONE', ( #131 ) ) ;
#175 = ADVANCED_FACE ( 'NONE', ( #146 ), #183, .F. ) ;
#176 = VERTEX_POINT ( 'NONE', #24 ) ;
#177 = ORIENTED_EDGE ( 'NONE', *, *, #160, .F. ) ;
#178 = EDGE_LOOP ( 'NONE', ( #26 ) ) ;
#179 = PERSON_AND_ORGANIZATION ( #10, #66 ) ;
#180 = DIRECTION ( 'NONE',  ( 3.491481338843133355E-15, -1.224646799147353207E-16, 1.000000000000000000 ) ) ;
#181 = DIRECTION ( 'NONE',  ( 4.275831445896958607E-31, 1.000000000000000000, 1.224646799147352961E-16 ) ) ;
#182 = UNCERTAINTY_MEASURE_WITH_UNIT (LENGTH_MEASURE( 1.000000000000000082E-05 ), #3, 'distance_accuracy_value', 'NONE');
#183 = PLANE ( 'NONE',  #185 ) ;
#184 = PLANE ( 'NONE',  #113 ) ;
#185 = AXIS2_PLACEMENT_3D ( 'NONE', #222, #180, #15 ) ;
#186 = DIRECTION ( 'NONE',  ( -3.491481338843133355E-15, 1.224646799147353207E-16, -1.000000000000000000 ) ) ;
#187 = APPROVAL ( #40, 'UNSPECIFIED' ) ;
#188 = APPROVAL_DATE_TIME ( #111, #233 ) ;
#189 = APPROVAL_ROLE ( '' ) ;
#190 = APPROVAL_PERSON_ORGANIZATION ( #204, #187, #189 ) ;
#191 = ORIENTED_EDGE ( 'NONE', *, *, #223, .F. ) ;
#192 = DIRECTION ( 'NONE',  ( 0.0000000000000000000, 0.0000000000000000000, 1.000000000000000000 ) ) ;
#193 = DIRECTION ( 'NONE',  ( -3.491481338843133355E-15, 1.224646799147353207E-16, -1.000000000000000000 ) ) ;
#194 = AXIS2_PLACEMENT_3D ( 'NONE', #154, #193, #74 ) ;
#195 = ADVANCED_FACE ( 'NONE', ( #34, #202 ), #123, .T. ) ;
#196 = SECURITY_CLASSIFICATION ( '', '', #83 ) ;
#197 = DIRECTION ( 'NONE',  ( 4.275831445896958607E-31, 1.000000000000000000, 1.224646799147353207E-16 ) ) ;
#198 = CARTESIAN_POINT ( 'NONE',  ( 2.779219145719134403E-13, -9.748188521212932624E-15, 79.60000000000000853 ) ) ;
#199 = DIRECTION ( 'NONE',  ( -3.491481338843133355E-15, 1.224646799147353207E-16, -1.000000000000000000 ) ) ;
#200 = FACE_OUTER_BOUND ( 'NONE', #8, .T. ) ;
#201 = EDGE_CURVE ( 'NONE', #93, #93, #98, .T. ) ;
#202 = FACE_OUTER_BOUND ( 'NONE', #96, .T. ) ;
#203 = PERSON_AND_ORGANIZATION ( #10, #66 ) ;
#204 = PERSON_AND_ORGANIZATION ( #10, #66 ) ;
#205 = PERSON_AND_ORGANIZATION_ROLE ( 'creator' ) ;
#206 = ORIENTED_EDGE ( 'NONE', *, *, #239, .T. ) ;
#207 = APPROVAL_ROLE ( '' ) ;
#208 = EDGE_LOOP ( 'NONE', ( #206 ) ) ;
#209 = DATE_AND_TIME ( #60, #103 ) ;
#210 = PRODUCT_DEFINITION ( 'UNKNOWN', '', #237, #88 ) ;
#211 = APPROVAL_PERSON_ORGANIZATION ( #28, #39, #80 ) ;
#212 = CALENDAR_DATE ( 2021, 2, 12 ) ;
#213 = EDGE_LOOP ( 'NONE', ( #232 ) ) ;
#214 = EDGE_LOOP ( 'NONE', ( #129 ) ) ;
#215 = AXIS2_PLACEMENT_3D ( 'NONE', #47, #48, #219 ) ;
#216 = DIRECTION ( 'NONE',  ( 4.275831445896958607E-31, 1.000000000000000000, 1.224646799147353207E-16 ) ) ;
#217 = ADVANCED_BREP_SHAPE_REPRESENTATION ( '321703', ( #142, #230, #45 ), #31 ) ;
#218 = DIRECTION ( 'NONE',  ( -3.491481338843133355E-15, 1.224646799147353207E-16, -1.000000000000000000 ) ) ;
#219 = DIRECTION ( 'NONE',  ( 4.037588981943856710E-31, 1.000000000000000000, 1.136480264659848336E-16 ) ) ;
#220 = CARTESIAN_POINT ( 'NONE',  ( 0.0000000000000000000, 0.0000000000000000000, 0.0000000000000000000 ) ) ;
#221 = FACE_OUTER_BOUND ( 'NONE', #178, .T. ) ;
#222 = CARTESIAN_POINT ( 'NONE',  ( 4.189777606611760026E-14, 1.788463540824278800E-32, 12.00000000000000000 ) ) ;
#223 = EDGE_CURVE ( 'NONE', #22, #22, #75, .T. ) ;
#224 = DATE_AND_TIME ( #149, #90 ) ;
#225 = COORDINATED_UNIVERSAL_TIME_OFFSET ( 1, 0, .AHEAD. ) ;
#226 = APPLICATION_CONTEXT ( 'configuration controlled 3d designs of mechanical parts and assemblies' ) ;
#227 = CARTESIAN_POINT ( 'NONE',  ( 2.779219145719134403E-13, 1.999999999999991340, 79.60000000000000853 ) ) ;
#228 = ORIENTED_EDGE ( 'NONE', *, *, #223, .T. ) ;
#229 = LOCAL_TIME ( 13, 56, 42.00000000000000000, #7 ) ;
#230 = MANIFOLD_SOLID_BREP ( 'Corps-Déplacer/Copier1[2]', #85 ) ;
#231 = PERSON_AND_ORGANIZATION_ROLE ( 'design_owner' ) ;
#232 = ORIENTED_EDGE ( 'NONE', *, *, #235, .F. ) ;
#233 = APPROVAL ( #38, 'UNSPECIFIED' ) ;
#234 = PERSON_AND_ORGANIZATION_ROLE ( 'creator' ) ;
#235 = EDGE_CURVE ( 'NONE', #147, #147, #164, .T. ) ;
#236 = AXIS2_PLACEMENT_3D ( 'NONE', #36, #89, #181 ) ;
#237 = PRODUCT_DEFINITION_FORMATION_WITH_SPECIFIED_SOURCE ( 'ANY', '', #44, .NOT_KNOWN. ) ;
#238 = PERSON_AND_ORGANIZATION_ROLE ( 'classification_officer' ) ;
#239 = EDGE_CURVE ( 'NONE', #77, #77, #19, .T. ) ;
#240 = ADVANCED_FACE ( 'NONE', ( #124, #173 ), #148, .T. ) ;
#241 = DIRECTION ( 'NONE',  ( 4.275831445896958607E-31, 1.000000000000000000, 1.224646799147353207E-16 ) ) ;
#242 = CARTESIAN_POINT ( 'NONE',  ( 4.189777606611760026E-14, -1.469576158976823947E-15, 12.00000000000000000 ) ) ;
#243 = CARTESIAN_POINT ( 'NONE',  ( -8.487525420105543645E-31, 2.977023168583816199E-32, -2.430923896307518960E-16 ) ) ;
ENDSEC;
END-ISO-10303-21;
