ISO-10303-21;
HEADER;
FILE_DESCRIPTION (( 'STEP AP203' ),
    '1' );
FILE_NAME ('321702.step',
    '2021-12-02T12:56:42',
    ( '' ),
    ( '' ),
    'SwSTEP 2.0',
    'SolidWorks 2019',
    '' );
FILE_SCHEMA (( 'CONFIG_CONTROL_DESIGN' ));
ENDSEC;

DATA;
#1 = CARTESIAN_POINT ( 'NONE',  ( 4.189777606611760026E-14, 2.380000000000018545, 12.00000000000000000 ) ) ;
#2 = AXIS2_PLACEMENT_3D ( 'NONE', #198, #242, #124 ) ;
#3 = DIRECTION ( 'NONE',  ( 1.000000000000000000, 0.0000000000000000000, 0.0000000000000000000 ) ) ;
#4 = ADVANCED_FACE ( 'NONE', ( #183, #214 ), #145, .T. ) ;
#5 = AXIS2_PLACEMENT_3D ( 'NONE', #128, #106, #70 ) ;
#6 = PERSON_AND_ORGANIZATION ( #50, #222 ) ;
#7 = CALENDAR_DATE ( 2021, 2, 12 ) ;
#8 = LOCAL_TIME ( 13, 56, 42.00000000000000000, #84 ) ;
#9 = APPROVAL_DATE_TIME ( #218, #212 ) ;
#10 = DATE_AND_TIME ( #98, #235 ) ;
#11 = ORIENTED_EDGE ( 'NONE', *, *, #114, .T. ) ;
#12 = PERSON_AND_ORGANIZATION ( #50, #222 ) ;
#13 = DIRECTION ( 'NONE',  ( 0.0000000000000000000, 1.000000000000000000, 0.0000000000000000000 ) ) ;
#14 = PERSON_AND_ORGANIZATION ( #50, #222 ) ;
#15 = ADVANCED_FACE ( 'NONE', ( #217, #16 ), #112, .T. ) ;
#16 = FACE_BOUND ( 'NONE', #28, .T. ) ;
#17 = DIRECTION ( 'NONE',  ( -4.275831445896958607E-31, -1.000000000000000000, -1.224646799147353207E-16 ) ) ;
#18 = PLANE ( 'NONE',  #58 ) ;
#19 = CARTESIAN_POINT ( 'NONE',  ( 2.779219145719134403E-13, -9.748188521212932624E-15, 79.60000000000000853 ) ) ;
#20 = FACE_OUTER_BOUND ( 'NONE', #134, .T. ) ;
#21 = CARTESIAN_POINT ( 'NONE',  ( 2.793185071074506684E-13, 1.199807826129472128E-32, 80.00000000000000000 ) ) ;
#22 = VERTEX_POINT ( 'NONE', #38 ) ;
#23 = ADVANCED_FACE ( 'NONE', ( #163 ), #18, .F. ) ;
#24 = EDGE_LOOP ( 'NONE', ( #94 ) ) ;
#25 = CIRCLE ( 'NONE', #85, 2.000000000000000888 ) ;
#26 = COORDINATED_UNIVERSAL_TIME_OFFSET ( 1, 0, .AHEAD. ) ;
#27 = PERSON_AND_ORGANIZATION ( #50, #222 ) ;
#28 = EDGE_LOOP ( 'NONE', ( #103 ) ) ;
#29 = PLANE ( 'NONE',  #64 ) ;
#30 = ADVANCED_FACE ( 'NONE', ( #143 ), #29, .T. ) ;
#31 = CARTESIAN_POINT ( 'NONE',  ( 4.189777606611760026E-14, -1.469576158976823947E-15, 12.00000000000000000 ) ) ;
#32 = EDGE_LOOP ( 'NONE', ( #86 ) ) ;
#33 = CONICAL_SURFACE ( 'NONE', #39, 2.380000000000019877, 0.5235987755983001479 ) ;
#34 = EDGE_LOOP ( 'NONE', ( #104 ) ) ;
#35 = DESIGN_CONTEXT ( 'detailed design', #225, 'design' ) ;
#36 = PRODUCT_RELATED_PRODUCT_CATEGORY ( 'detail', '', ( #60 ) ) ;
#37 = FACE_OUTER_BOUND ( 'NONE', #113, .T. ) ;
#38 = CARTESIAN_POINT ( 'NONE',  ( 4.419579683368862346E-14, 1.999999999999990452, 12.65817930687621917 ) ) ;
#39 = AXIS2_PLACEMENT_3D ( 'NONE', #166, #178, #13 ) ;
#40 = DIRECTION ( 'NONE',  ( -3.491481338843133355E-15, 1.224646799147353207E-16, -1.000000000000000000 ) ) ;
#41 = LOCAL_TIME ( 13, 56, 42.00000000000000000, #164 ) ;
#42 = PRODUCT_DEFINITION_SHAPE ( 'NONE', 'NONE',  #202 ) ;
#43 = CIRCLE ( 'NONE', #199, 1.980000000000018190 ) ;
#44 = DIRECTION ( 'NONE',  ( -4.275831445896958607E-31, -1.000000000000000000, -1.224646799147353207E-16 ) ) ;
#45 = CC_DESIGN_PERSON_AND_ORGANIZATION_ASSIGNMENT ( #27, #117, ( #60 ) ) ;
#46 = CIRCLE ( 'NONE', #174, 2.380000000000019877 ) ;
#47 = ORIENTED_EDGE ( 'NONE', *, *, #176, .F. ) ;
#48 = ORIENTED_EDGE ( 'NONE', *, *, #114, .F. ) ;
#49 = CARTESIAN_POINT ( 'NONE',  ( -8.466146262876055428E-31, 2.969524369670505214E-32, -2.424800662311781591E-16 ) ) ;
#50 = PERSON ( 'UNSPECIFIED', 'UNSPECIFIED', 'UNSPECIFIED', ('UNSPECIFIED'), ('UNSPECIFIED'), ('UNSPECIFIED') ) ;
#51 = DIRECTION ( 'NONE',  ( 4.275831445896958607E-31, 1.000000000000000000, 1.224646799147353207E-16 ) ) ;
#52 = DIRECTION ( 'NONE',  ( -3.491481338843133355E-15, 1.224646799147353207E-16, -1.000000000000000000 ) ) ;
#53 = FACE_OUTER_BOUND ( 'NONE', #101, .T. ) ;
#54 = ADVANCED_FACE ( 'NONE', ( #237, #62 ), #135, .T. ) ;
#55 = DIRECTION ( 'NONE',  ( -3.491481338843133355E-15, 1.224646799147353207E-16, -1.000000000000000000 ) ) ;
#56 = CARTESIAN_POINT ( 'NONE',  ( 2.779219145719134403E-13, 1.999999999999991340, 79.60000000000000853 ) ) ;
#57 = DIRECTION ( 'NONE',  ( 4.275831445896958607E-31, 1.000000000000000000, 1.224646799147353207E-16 ) ) ;
#58 = AXIS2_PLACEMENT_3D ( 'NONE', #182, #118, #17 ) ;
#59 = APPROVAL_ROLE ( '' ) ;
#60 = PRODUCT ( '321702', '321702', '', ( #224 ) ) ;
#61 = ADVANCED_FACE ( 'NONE', ( #219, #87 ), #33, .T. ) ;
#62 = FACE_BOUND ( 'NONE', #160, .T. ) ;
#63 = DATE_TIME_ROLE ( 'creation_date' ) ;
#64 = AXIS2_PLACEMENT_3D ( 'NONE', #175, #99, #119 ) ;
#65 = DIRECTION ( 'NONE',  ( 3.491481338843133355E-15, -1.224646799147353207E-16, 1.000000000000000000 ) ) ;
#66 = EDGE_LOOP ( 'NONE', ( #81 ) ) ;
#67 = EDGE_LOOP ( 'NONE', ( #153 ) ) ;
#68 = AXIS2_PLACEMENT_3D ( 'NONE', #121, #241, #221 ) ;
#69 = CC_DESIGN_APPROVAL ( #212, ( #181 ) ) ;
#70 = DIRECTION ( 'NONE',  ( 0.0000000000000000000, 1.000000000000000000, 0.0000000000000000000 ) ) ;
#71 = DIRECTION ( 'NONE',  ( 4.046071311737856696E-31, 1.000000000000000000, 1.138867828241066586E-16 ) ) ;
#72 = DIRECTION ( 'NONE',  ( -3.491481338843133355E-15, 1.224646799147353207E-16, -1.000000000000000000 ) ) ;
#73 = APPROVAL_PERSON_ORGANIZATION ( #12, #212, #59 ) ;
#74 = APPLICATION_CONTEXT ( 'configuration controlled 3d designs of mechanical parts and assemblies' ) ;
#75 = EDGE_LOOP ( 'NONE', ( #194 ) ) ;
#76 = AXIS2_PLACEMENT_3D ( 'NONE', #206, #40, #57 ) ;
#77 = PERSON_AND_ORGANIZATION ( #50, #222 ) ;
#78 = CLOSED_SHELL ( 'NONE', ( #23, #61, #186, #54, #162 ) ) ;
#79 = DATE_AND_TIME ( #100, #8 ) ;
#80 = APPROVAL_DATE_TIME ( #10, #141 ) ;
#81 = ORIENTED_EDGE ( 'NONE', *, *, #105, .T. ) ;
#82 = CC_DESIGN_DATE_AND_TIME_ASSIGNMENT ( #159, #215, ( #181 ) ) ;
#83 = DIRECTION ( 'NONE',  ( 0.0000000000000000000, 1.000000000000000000, 0.0000000000000000000 ) ) ;
#84 = COORDINATED_UNIVERSAL_TIME_OFFSET ( 1, 0, .AHEAD. ) ;
#85 = AXIS2_PLACEMENT_3D ( 'NONE', #19, #72, #201 ) ;
#86 = ORIENTED_EDGE ( 'NONE', *, *, #226, .F. ) ;
#87 = FACE_OUTER_BOUND ( 'NONE', #75, .T. ) ;
#88 = CARTESIAN_POINT ( 'NONE',  ( 1.396592535537252553E-15, 2.380000000000019877, 0.3999999999999997446 ) ) ;
#89 = EDGE_CURVE ( 'NONE', #205, #205, #43, .T. ) ;
#90 = DIRECTION ( 'NONE',  ( 0.0000000000000000000, 1.000000000000000000, 0.0000000000000000000 ) ) ;
#91 = CARTESIAN_POINT ( 'NONE',  ( 4.189777606611760026E-14, 2.380000000000018545, 12.00000000000000000 ) ) ;
#92 = CIRCLE ( 'NONE', #185, 2.380000000000019877 ) ;
#93 = CYLINDRICAL_SURFACE ( 'NONE', #154, 1.999999999999996669 ) ;
#94 = ORIENTED_EDGE ( 'NONE', *, *, #132, .T. ) ;
#95 = CC_DESIGN_PERSON_AND_ORGANIZATION_ASSIGNMENT ( #228, #220, ( #202 ) ) ;
#96 = PRODUCT_DEFINITION_FORMATION_WITH_SPECIFIED_SOURCE ( 'ANY', '', #60, .NOT_KNOWN. ) ;
#97 = PERSON_AND_ORGANIZATION ( #50, #222 ) ;
#98 = CALENDAR_DATE ( 2021, 2, 12 ) ;
#99 = DIRECTION ( 'NONE',  ( 3.491481338843133355E-15, -1.224646799147353207E-16, 1.000000000000000000 ) ) ;
#100 = CALENDAR_DATE ( 2021, 2, 12 ) ;
#101 = EDGE_LOOP ( 'NONE', ( #196 ) ) ;
#102 = DIRECTION ( 'NONE',  ( -3.491481338843133355E-15, 1.224646799147353207E-16, -1.000000000000000000 ) ) ;
#103 = ORIENTED_EDGE ( 'NONE', *, *, #89, .F. ) ;
#104 = ORIENTED_EDGE ( 'NONE', *, *, #132, .F. ) ;
#105 = EDGE_CURVE ( 'NONE', #227, #227, #92, .T. ) ;
#106 = DIRECTION ( 'NONE',  ( -3.491481338843133355E-15, 1.224646799147353207E-16, -1.000000000000000000 ) ) ;
#107 = DIRECTION ( 'NONE',  ( 0.0000000000000000000, 0.0000000000000000000, 1.000000000000000000 ) ) ;
#108 =( GEOMETRIC_REPRESENTATION_CONTEXT ( 3 ) GLOBAL_UNCERTAINTY_ASSIGNED_CONTEXT ( ( #223 ) ) GLOBAL_UNIT_ASSIGNED_CONTEXT ( ( #148, #229, #130 ) ) REPRESENTATION_CONTEXT ( 'NONE', 'WORKASPACE' ) );
#109 = CARTESIAN_POINT ( 'NONE',  ( 2.793185071074506684E-13, 1.599999999999991207, 80.00000000000000000 ) ) ;
#110 = DIRECTION ( 'NONE',  ( 4.275831445896958607E-31, 1.000000000000000000, 1.224646799147353207E-16 ) ) ;
#111 = DIRECTION ( 'NONE',  ( 4.275831445896958607E-31, 1.000000000000000000, 1.224646799147353207E-16 ) ) ;
#112 = CONICAL_SURFACE ( 'NONE', #157, 1.980000000000018190, 0.7853981633974504994 ) ;
#113 = EDGE_LOOP ( 'NONE', ( #48 ) ) ;
#114 = EDGE_CURVE ( 'NONE', #231, #231, #129, .T. ) ;
#115 = AXIS2_PLACEMENT_3D ( 'NONE', #127, #149, #90 ) ;
#116 = ADVANCED_BREP_SHAPE_REPRESENTATION ( '321702', ( #232, #233, #140 ), #108 ) ;
#117 = PERSON_AND_ORGANIZATION_ROLE ( 'design_owner' ) ;
#118 = DIRECTION ( 'NONE',  ( 3.491481338843133355E-15, -1.224646799147353207E-16, 1.000000000000000000 ) ) ;
#119 = DIRECTION ( 'NONE',  ( -4.275831445896958607E-31, -1.000000000000000000, -1.224646799147353207E-16 ) ) ;
#120 = PERSON_AND_ORGANIZATION_ROLE ( 'creator' ) ;
#121 = CARTESIAN_POINT ( 'NONE',  ( 0.0000000000000000000, 0.0000000000000000000, 0.0000000000000000000 ) ) ;
#122 = DIRECTION ( 'NONE',  ( 0.0000000000000000000, 1.000000000000000000, 0.0000000000000000000 ) ) ;
#123 = LOCAL_TIME ( 13, 56, 42.00000000000000000, #172 ) ;
#124 = DIRECTION ( 'NONE',  ( 0.0000000000000000000, 1.000000000000000000, 0.0000000000000000000 ) ) ;
#125 = PLANE ( 'NONE',  #190 ) ;
#126 = CC_DESIGN_PERSON_AND_ORGANIZATION_ASSIGNMENT ( #137, #236, ( #96 ) ) ;
#127 = CARTESIAN_POINT ( 'NONE',  ( 4.419579683368862346E-14, -1.550179877119922378E-15, 12.65817930687621917 ) ) ;
#128 = CARTESIAN_POINT ( 'NONE',  ( 4.189777606611760026E-14, -1.469576158976823947E-15, 12.00000000000000000 ) ) ;
#129 = CIRCLE ( 'NONE', #2, 1.600000000000000977 ) ;
#130 =( NAMED_UNIT ( * ) SI_UNIT ( $, .STERADIAN. ) SOLID_ANGLE_UNIT ( ) );
#131 = CARTESIAN_POINT ( 'NONE',  ( 0.0000000000000000000, 1.980000000000018190, 0.0000000000000000000 ) ) ;
#132 = EDGE_CURVE ( 'NONE', #170, #170, #46, .T. ) ;
#133 = APPROVAL ( #238, 'UNSPECIFIED' ) ;
#134 = EDGE_LOOP ( 'NONE', ( #165 ) ) ;
#135 = CONICAL_SURFACE ( 'NONE', #230, 1.600000000000000977, 0.7853981633974512766 ) ;
#136 = SHAPE_DEFINITION_REPRESENTATION ( #42, #116 ) ;
#137 = PERSON_AND_ORGANIZATION ( #50, #222 ) ;
#138 = DIRECTION ( 'NONE',  ( -3.491481338843133355E-15, 1.224646799147353207E-16, -1.000000000000000000 ) ) ;
#139 = APPROVAL_DATE_TIME ( #79, #133 ) ;
#140 = AXIS2_PLACEMENT_3D ( 'NONE', #203, #107, #3 ) ;
#141 = APPROVAL ( #158, 'UNSPECIFIED' ) ;
#142 = DIRECTION ( 'NONE',  ( -3.491481338843133355E-15, 1.224646799147353207E-16, -1.000000000000000000 ) ) ;
#143 = FACE_OUTER_BOUND ( 'NONE', #180, .T. ) ;
#144 = PERSON_AND_ORGANIZATION_ROLE ( 'classification_officer' ) ;
#145 = CYLINDRICAL_SURFACE ( 'NONE', #68, 2.380000000000019877 ) ;
#146 = CC_DESIGN_APPROVAL ( #133, ( #96 ) ) ;
#147 = CC_DESIGN_PERSON_AND_ORGANIZATION_ASSIGNMENT ( #97, #120, ( #96 ) ) ;
#148 =( LENGTH_UNIT ( ) NAMED_UNIT ( * ) SI_UNIT ( .MILLI., .METRE. ) );
#149 = DIRECTION ( 'NONE',  ( -3.491481338843133355E-15, 1.224646799147353207E-16, -1.000000000000000000 ) ) ;
#150 = VERTEX_POINT ( 'NONE', #56 ) ;
#151 = CC_DESIGN_APPROVAL ( #141, ( #202 ) ) ;
#152 = ADVANCED_FACE ( 'NONE', ( #53 ), #207, .T. ) ;
#153 = ORIENTED_EDGE ( 'NONE', *, *, #234, .T. ) ;
#154 = AXIS2_PLACEMENT_3D ( 'NONE', #184, #52, #110 ) ;
#155 = ORIENTED_EDGE ( 'NONE', *, *, #176, .T. ) ;
#156 = CLOSED_SHELL ( 'NONE', ( #4, #30, #152, #15 ) ) ;
#157 = AXIS2_PLACEMENT_3D ( 'NONE', #167, #65, #44 ) ;
#158 = APPROVAL_STATUS ( 'not_yet_approved' ) ;
#159 = DATE_AND_TIME ( #211, #41 ) ;
#160 = EDGE_LOOP ( 'NONE', ( #11 ) ) ;
#161 = CALENDAR_DATE ( 2021, 2, 12 ) ;
#162 = ADVANCED_FACE ( 'NONE', ( #37 ), #125, .F. ) ;
#163 = FACE_OUTER_BOUND ( 'NONE', #66, .T. ) ;
#164 = COORDINATED_UNIVERSAL_TIME_OFFSET ( 1, 0, .AHEAD. ) ;
#165 = ORIENTED_EDGE ( 'NONE', *, *, #226, .T. ) ;
#166 = CARTESIAN_POINT ( 'NONE',  ( 4.189777606611760026E-14, -1.469576158976823947E-15, 12.00000000000000000 ) ) ;
#167 = CARTESIAN_POINT ( 'NONE',  ( -8.466146262876055428E-31, 2.969524369670505214E-32, -2.424800662311781591E-16 ) ) ;
#168 = DIRECTION ( 'NONE',  ( -3.491481338843133355E-15, 1.224646799147353207E-16, -1.000000000000000000 ) ) ;
#169 = APPROVAL_PERSON_ORGANIZATION ( #6, #141, #213 ) ;
#170 = VERTEX_POINT ( 'NONE', #88 ) ;
#171 = CC_DESIGN_PERSON_AND_ORGANIZATION_ASSIGNMENT ( #77, #144, ( #181 ) ) ;
#172 = COORDINATED_UNIVERSAL_TIME_OFFSET ( 1, 0, .AHEAD. ) ;
#173 = APPROVAL_ROLE ( '' ) ;
#174 = AXIS2_PLACEMENT_3D ( 'NONE', #200, #55, #71 ) ;
#175 = CARTESIAN_POINT ( 'NONE',  ( 4.189777606611760026E-14, 1.784714141367623307E-32, 12.00000000000000000 ) ) ;
#176 = EDGE_CURVE ( 'NONE', #187, #187, #193, .T. ) ;
#177 = APPROVAL_STATUS ( 'not_yet_approved' ) ;
#178 = DIRECTION ( 'NONE',  ( -3.491481338843133355E-15, 1.224646799147353207E-16, -1.000000000000000000 ) ) ;
#179 = DATE_AND_TIME ( #161, #204 ) ;
#180 = EDGE_LOOP ( 'NONE', ( #47 ) ) ;
#181 = SECURITY_CLASSIFICATION ( '', '', #197 ) ;
#182 = CARTESIAN_POINT ( 'NONE',  ( 4.189777606611760026E-14, 1.784714141367623307E-32, 12.00000000000000000 ) ) ;
#183 = FACE_OUTER_BOUND ( 'NONE', #192, .T. ) ;
#184 = CARTESIAN_POINT ( 'NONE',  ( 0.0000000000000000000, 0.0000000000000000000, 0.0000000000000000000 ) ) ;
#185 = AXIS2_PLACEMENT_3D ( 'NONE', #31, #102, #122 ) ;
#186 = ADVANCED_FACE ( 'NONE', ( #188, #20 ), #93, .T. ) ;
#187 = VERTEX_POINT ( 'NONE', #1 ) ;
#188 = FACE_OUTER_BOUND ( 'NONE', #243, .T. ) ;
#189 = APPLICATION_PROTOCOL_DEFINITION ( 'international standard', 'config_control_design', 1994, #74 ) ;
#190 = AXIS2_PLACEMENT_3D ( 'NONE', #21, #168, #111 ) ;
#191 = CC_DESIGN_DATE_AND_TIME_ASSIGNMENT ( #179, #63, ( #202 ) ) ;
#192 = EDGE_LOOP ( 'NONE', ( #155 ) ) ;
#193 = CIRCLE ( 'NONE', #5, 2.380000000000019877 ) ;
#194 = ORIENTED_EDGE ( 'NONE', *, *, #105, .F. ) ;
#195 = CARTESIAN_POINT ( 'NONE',  ( 2.793185071074506684E-13, -9.797174393178826052E-15, 80.00000000000000000 ) ) ;
#196 = ORIENTED_EDGE ( 'NONE', *, *, #89, .T. ) ;
#197 = SECURITY_CLASSIFICATION_LEVEL ( 'unclassified' ) ;
#198 = CARTESIAN_POINT ( 'NONE',  ( 2.793185071074506684E-13, -9.797174393178826052E-15, 80.00000000000000000 ) ) ;
#199 = AXIS2_PLACEMENT_3D ( 'NONE', #49, #142, #51 ) ;
#200 = CARTESIAN_POINT ( 'NONE',  ( 1.396592535537251567E-15, -4.898587196589406296E-17, 0.3999999999999994671 ) ) ;
#201 = DIRECTION ( 'NONE',  ( 0.0000000000000000000, 1.000000000000000000, 0.0000000000000000000 ) ) ;
#202 = PRODUCT_DEFINITION ( 'UNKNOWN', '', #96, #35 ) ;
#203 = CARTESIAN_POINT ( 'NONE',  ( 0.0000000000000000000, 0.0000000000000000000, 0.0000000000000000000 ) ) ;
#204 = LOCAL_TIME ( 13, 56, 42.00000000000000000, #26 ) ;
#205 = VERTEX_POINT ( 'NONE', #131 ) ;
#206 = CARTESIAN_POINT ( 'NONE',  ( -4.233073131438027714E-31, 1.484762184835252607E-32, -1.212400331155890796E-16 ) ) ;
#207 = PLANE ( 'NONE',  #76 ) ;
#208 = APPLICATION_PROTOCOL_DEFINITION ( 'international standard', 'config_control_design', 1994, #225 ) ;
#209 = CC_DESIGN_SECURITY_CLASSIFICATION ( #181, ( #96 ) ) ;
#210 = COORDINATED_UNIVERSAL_TIME_OFFSET ( 1, 0, .AHEAD. ) ;
#211 = CALENDAR_DATE ( 2021, 2, 12 ) ;
#212 = APPROVAL ( #177, 'UNSPECIFIED' ) ;
#213 = APPROVAL_ROLE ( '' ) ;
#214 = FACE_OUTER_BOUND ( 'NONE', #34, .T. ) ;
#215 = DATE_TIME_ROLE ( 'classification_date' ) ;
#216 = CIRCLE ( 'NONE', #115, 1.999999999999992228 ) ;
#217 = FACE_OUTER_BOUND ( 'NONE', #24, .T. ) ;
#218 = DATE_AND_TIME ( #7, #123 ) ;
#219 = FACE_BOUND ( 'NONE', #67, .T. ) ;
#220 = PERSON_AND_ORGANIZATION_ROLE ( 'creator' ) ;
#221 = DIRECTION ( 'NONE',  ( 4.275831445896958607E-31, 1.000000000000000000, 1.224646799147353207E-16 ) ) ;
#222 = ORGANIZATION ( 'UNSPECIFIED', 'UNSPECIFIED', '' ) ;
#223 = UNCERTAINTY_MEASURE_WITH_UNIT (LENGTH_MEASURE( 1.000000000000000082E-05 ), #148, 'distance_accuracy_value', 'NONE');
#224 = MECHANICAL_CONTEXT ( 'NONE', #74, 'mechanical' ) ;
#225 = APPLICATION_CONTEXT ( 'configuration controlled 3d designs of mechanical parts and assemblies' ) ;
#226 = EDGE_CURVE ( 'NONE', #150, #150, #25, .T. ) ;
#227 = VERTEX_POINT ( 'NONE', #91 ) ;
#228 = PERSON_AND_ORGANIZATION ( #50, #222 ) ;
#229 =( NAMED_UNIT ( * ) PLANE_ANGLE_UNIT ( ) SI_UNIT ( $, .RADIAN. ) );
#230 = AXIS2_PLACEMENT_3D ( 'NONE', #195, #138, #83 ) ;
#231 = VERTEX_POINT ( 'NONE', #109 ) ;
#232 = MANIFOLD_SOLID_BREP ( 'Corps-Déplacer/Copier1[1]', #78 ) ;
#233 = MANIFOLD_SOLID_BREP ( 'Corps-Déplacer/Copier1[2]', #156 ) ;
#234 = EDGE_CURVE ( 'NONE', #22, #22, #216, .T. ) ;
#235 = LOCAL_TIME ( 13, 56, 42.00000000000000000, #210 ) ;
#236 = PERSON_AND_ORGANIZATION_ROLE ( 'design_supplier' ) ;
#237 = FACE_OUTER_BOUND ( 'NONE', #32, .T. ) ;
#238 = APPROVAL_STATUS ( 'not_yet_approved' ) ;
#239 = ORIENTED_EDGE ( 'NONE', *, *, #234, .F. ) ;
#240 = APPROVAL_PERSON_ORGANIZATION ( #14, #133, #173 ) ;
#241 = DIRECTION ( 'NONE',  ( -3.491481338843133355E-15, 1.224646799147353207E-16, -1.000000000000000000 ) ) ;
#242 = DIRECTION ( 'NONE',  ( -3.491481338843133355E-15, 1.224646799147353207E-16, -1.000000000000000000 ) ) ;
#243 = EDGE_LOOP ( 'NONE', ( #239 ) ) ;
ENDSEC;
END-ISO-10303-21;
