ISO-10303-21;
HEADER;
FILE_DESCRIPTION (( 'STEP AP203' ),
    '1' );
FILE_NAME ('321701.step',
    '2021-12-02T12:56:41',
    ( '' ),
    ( '' ),
    'SwSTEP 2.0',
    'SolidWorks 2019',
    '' );
FILE_SCHEMA (( 'CONFIG_CONTROL_DESIGN' ));
ENDSEC;

DATA;
#1 = FACE_OUTER_BOUND ( 'NONE', #34, .T. ) ;
#2 = PLANE ( 'NONE',  #27 ) ;
#3 = FACE_OUTER_BOUND ( 'NONE', #160, .T. ) ;
#4 = LOCAL_TIME ( 13, 56, 41.00000000000000000, #145 ) ;
#5 = FACE_OUTER_BOUND ( 'NONE', #183, .T. ) ;
#6 = CC_DESIGN_PERSON_AND_ORGANIZATION_ASSIGNMENT ( #11, #47, ( #87 ) ) ;
#7 = DATE_TIME_ROLE ( 'creation_date' ) ;
#8 = CIRCLE ( 'NONE', #45, 2.375000000000019984 ) ;
#9 = CARTESIAN_POINT ( 'NONE',  ( 0.0000000000000000000, 1.975000000000018296, 0.0000000000000000000 ) ) ;
#10 = EDGE_CURVE ( 'NONE', #156, #156, #189, .T. ) ;
#11 = PERSON_AND_ORGANIZATION ( #193, #23 ) ;
#12 = COORDINATED_UNIVERSAL_TIME_OFFSET ( 1, 0, .AHEAD. ) ;
#13 = EDGE_LOOP ( 'NONE', ( #105 ) ) ;
#14 = DESIGN_CONTEXT ( 'detailed design', #223, 'design' ) ;
#15 = CLOSED_SHELL ( 'NONE', ( #175, #241, #43, #196 ) ) ;
#16 = EDGE_LOOP ( 'NONE', ( #17 ) ) ;
#17 = ORIENTED_EDGE ( 'NONE', *, *, #78, .T. ) ;
#18 = LOCAL_TIME ( 13, 56, 41.00000000000000000, #12 ) ;
#19 = CARTESIAN_POINT ( 'NONE',  ( 1.396592535537251567E-15, -4.898587196589406296E-17, 0.3999999999999994671 ) ) ;
#20 = FACE_OUTER_BOUND ( 'NONE', #199, .T. ) ;
#21 = PLANE ( 'NONE',  #77 ) ;
#22 = FACE_BOUND ( 'NONE', #126, .T. ) ;
#23 = ORGANIZATION ( 'UNSPECIFIED', 'UNSPECIFIED', '' ) ;
#24 = FACE_OUTER_BOUND ( 'NONE', #238, .T. ) ;
#25 = APPROVAL_STATUS ( 'not_yet_approved' ) ;
#26 = CARTESIAN_POINT ( 'NONE',  ( 1.396592535537252553E-15, 2.375000000000019984, 0.3999999999999997446 ) ) ;
#27 = AXIS2_PLACEMENT_3D ( 'NONE', #95, #79, #111 ) ;
#28 = PERSON_AND_ORGANIZATION ( #193, #23 ) ;
#29 = PRODUCT_RELATED_PRODUCT_CATEGORY ( 'detail', '', ( #46 ) ) ;
#30 = CC_DESIGN_SECURITY_CLASSIFICATION ( #205, ( #157 ) ) ;
#31 = APPROVAL_ROLE ( '' ) ;
#32 = APPROVAL_DATE_TIME ( #128, #102 ) ;
#33 = PERSON_AND_ORGANIZATION_ROLE ( 'creator' ) ;
#34 = EDGE_LOOP ( 'NONE', ( #161 ) ) ;
#35 = ADVANCED_FACE ( 'NONE', ( #148, #1 ), #228, .T. ) ;
#36 = CLOSED_SHELL ( 'NONE', ( #49, #219, #35, #50, #60 ) ) ;
#37 = ORIENTED_EDGE ( 'NONE', *, *, #10, .T. ) ;
#38 = UNCERTAINTY_MEASURE_WITH_UNIT (LENGTH_MEASURE( 1.000000000000000082E-05 ), #83, 'distance_accuracy_value', 'NONE');
#39 = CARTESIAN_POINT ( 'NONE',  ( 2.779219145719134403E-13, -9.748188521212932624E-15, 79.60000000000000853 ) ) ;
#40 = DIRECTION ( 'NONE',  ( -3.491481338843133355E-15, 1.224646799147353207E-16, -1.000000000000000000 ) ) ;
#41 = DIRECTION ( 'NONE',  ( 0.0000000000000000000, 1.000000000000000000, 0.0000000000000000000 ) ) ;
#42 = FACE_OUTER_BOUND ( 'NONE', #13, .T. ) ;
#43 = ADVANCED_FACE ( 'NONE', ( #20 ), #93, .T. ) ;
#44 = CARTESIAN_POINT ( 'NONE',  ( 0.0000000000000000000, 0.0000000000000000000, 0.0000000000000000000 ) ) ;
#45 = AXIS2_PLACEMENT_3D ( 'NONE', #222, #133, #75 ) ;
#46 = PRODUCT ( '321701', '321701', '', ( #215 ) ) ;
#47 = PERSON_AND_ORGANIZATION_ROLE ( 'creator' ) ;
#48 = APPROVAL_ROLE ( '' ) ;
#49 = ADVANCED_FACE ( 'NONE', ( #3 ), #21, .F. ) ;
#50 = ADVANCED_FACE ( 'NONE', ( #168, #207 ), #185, .T. ) ;
#51 = VERTEX_POINT ( 'NONE', #122 ) ;
#52 = ADVANCED_BREP_SHAPE_REPRESENTATION ( '321701', ( #139, #214, #68 ), #88 ) ;
#53 = ORIENTED_EDGE ( 'NONE', *, *, #134, .T. ) ;
#54 = DATE_AND_TIME ( #220, #106 ) ;
#55 = ORIENTED_EDGE ( 'NONE', *, *, #78, .F. ) ;
#56 = DIRECTION ( 'NONE',  ( -3.491481338843133355E-15, 1.224646799147353207E-16, -1.000000000000000000 ) ) ;
#57 = DIRECTION ( 'NONE',  ( -3.491481338843133355E-15, 1.224646799147353207E-16, -1.000000000000000000 ) ) ;
#58 = DIRECTION ( 'NONE',  ( 0.0000000000000000000, 1.000000000000000000, 0.0000000000000000000 ) ) ;
#59 = DIRECTION ( 'NONE',  ( -4.275831445896958607E-31, -1.000000000000000000, -1.224646799147353207E-16 ) ) ;
#60 = ADVANCED_FACE ( 'NONE', ( #203 ), #2, .F. ) ;
#61 = DIRECTION ( 'NONE',  ( -3.491481338843133355E-15, 1.224646799147353207E-16, -1.000000000000000000 ) ) ;
#62 = COORDINATED_UNIVERSAL_TIME_OFFSET ( 1, 0, .AHEAD. ) ;
#63 = CARTESIAN_POINT ( 'NONE',  ( 4.416555971832586104E-14, 1.999999999999990452, 12.64951905283837519 ) ) ;
#64 = CARTESIAN_POINT ( 'NONE',  ( 0.0000000000000000000, 0.0000000000000000000, 0.0000000000000000000 ) ) ;
#65 = PRODUCT_DEFINITION_SHAPE ( 'NONE', 'NONE',  #87 ) ;
#66 = CALENDAR_DATE ( 2021, 2, 12 ) ;
#67 = PERSON_AND_ORGANIZATION ( #193, #23 ) ;
#68 = AXIS2_PLACEMENT_3D ( 'NONE', #64, #138, #234 ) ;
#69 = EDGE_CURVE ( 'NONE', #232, #232, #154, .T. ) ;
#70 = ORIENTED_EDGE ( 'NONE', *, *, #69, .F. ) ;
#71 = PERSON_AND_ORGANIZATION ( #193, #23 ) ;
#72 = APPROVAL ( #25, 'UNSPECIFIED' ) ;
#73 = AXIS2_PLACEMENT_3D ( 'NONE', #204, #243, #41 ) ;
#74 = DIRECTION ( 'NONE',  ( 4.054589356604672534E-31, 1.000000000000000000, 1.141265444721573897E-16 ) ) ;
#75 = DIRECTION ( 'NONE',  ( 0.0000000000000000000, 1.000000000000000000, 0.0000000000000000000 ) ) ;
#76 = CARTESIAN_POINT ( 'NONE',  ( -4.222383552823286233E-31, 1.481012785378598483E-32, -1.209338714158022604E-16 ) ) ;
#77 = AXIS2_PLACEMENT_3D ( 'NONE', #116, #227, #59 ) ;
#78 = EDGE_CURVE ( 'NONE', #98, #98, #110, .T. ) ;
#79 = DIRECTION ( 'NONE',  ( -3.491481338843133355E-15, 1.224646799147353207E-16, -1.000000000000000000 ) ) ;
#80 = CARTESIAN_POINT ( 'NONE',  ( 4.189777606611760026E-14, -1.469576158976823947E-15, 12.00000000000000000 ) ) ;
#81 = APPROVAL_STATUS ( 'not_yet_approved' ) ;
#82 = DATE_AND_TIME ( #66, #18 ) ;
#83 =( LENGTH_UNIT ( ) NAMED_UNIT ( * ) SI_UNIT ( .MILLI., .METRE. ) );
#84 = APPROVAL_DATE_TIME ( #82, #72 ) ;
#85 = APPLICATION_PROTOCOL_DEFINITION ( 'international standard', 'config_control_design', 1994, #223 ) ;
#86 = EDGE_CURVE ( 'NONE', #191, #191, #217, .T. ) ;
#87 = PRODUCT_DEFINITION ( 'UNKNOWN', '', #157, #14 ) ;
#88 =( GEOMETRIC_REPRESENTATION_CONTEXT ( 3 ) GLOBAL_UNCERTAINTY_ASSIGNED_CONTEXT ( ( #38 ) ) GLOBAL_UNIT_ASSIGNED_CONTEXT ( ( #83, #121, #172 ) ) REPRESENTATION_CONTEXT ( 'NONE', 'WORKASPACE' ) );
#89 = DATE_TIME_ROLE ( 'classification_date' ) ;
#90 = EDGE_LOOP ( 'NONE', ( #55 ) ) ;
#91 = CC_DESIGN_DATE_AND_TIME_ASSIGNMENT ( #137, #7, ( #87 ) ) ;
#92 = EDGE_LOOP ( 'NONE', ( #202 ) ) ;
#93 = PLANE ( 'NONE',  #230 ) ;
#94 = DIRECTION ( 'NONE',  ( 0.0000000000000000000, 1.000000000000000000, 0.0000000000000000000 ) ) ;
#95 = CARTESIAN_POINT ( 'NONE',  ( 2.793185071074506684E-13, 1.199807826129472128E-32, 80.00000000000000000 ) ) ;
#96 = AXIS2_PLACEMENT_3D ( 'NONE', #39, #149, #150 ) ;
#97 = CARTESIAN_POINT ( 'NONE',  ( 2.793185071074506684E-13, -9.797174393178826052E-15, 80.00000000000000000 ) ) ;
#98 = VERTEX_POINT ( 'NONE', #231 ) ;
#99 = VERTEX_POINT ( 'NONE', #26 ) ;
#100 = CC_DESIGN_APPROVAL ( #170, ( #87 ) ) ;
#101 = PERSON_AND_ORGANIZATION ( #193, #23 ) ;
#102 = APPROVAL ( #162, 'UNSPECIFIED' ) ;
#103 = LOCAL_TIME ( 13, 56, 41.00000000000000000, #62 ) ;
#104 = EDGE_LOOP ( 'NONE', ( #182 ) ) ;
#105 = ORIENTED_EDGE ( 'NONE', *, *, #152, .T. ) ;
#106 = LOCAL_TIME ( 13, 56, 41.00000000000000000, #125 ) ;
#107 = PERSON_AND_ORGANIZATION_ROLE ( 'classification_officer' ) ;
#108 = ORIENTED_EDGE ( 'NONE', *, *, #134, .F. ) ;
#109 = DIRECTION ( 'NONE',  ( 4.275831445896959482E-31, 1.000000000000000000, 1.224646799147353207E-16 ) ) ;
#110 = CIRCLE ( 'NONE', #181, 1.600000000000000977 ) ;
#111 = DIRECTION ( 'NONE',  ( 4.275831445896958607E-31, 1.000000000000000000, 1.224646799147353207E-16 ) ) ;
#112 = DIRECTION ( 'NONE',  ( 4.275831445896958607E-31, 1.000000000000000000, 1.224646799147353207E-16 ) ) ;
#113 = FACE_BOUND ( 'NONE', #92, .T. ) ;
#114 = CC_DESIGN_PERSON_AND_ORGANIZATION_ASSIGNMENT ( #159, #107, ( #205 ) ) ;
#115 = CIRCLE ( 'NONE', #198, 1.999999999999992228 ) ;
#116 = CARTESIAN_POINT ( 'NONE',  ( 4.189777606611760026E-14, 1.780964741910968910E-32, 12.00000000000000000 ) ) ;
#117 = COORDINATED_UNIVERSAL_TIME_OFFSET ( 1, 0, .AHEAD. ) ;
#118 = APPROVAL_ROLE ( '' ) ;
#119 = PERSON_AND_ORGANIZATION ( #193, #23 ) ;
#120 = LOCAL_TIME ( 13, 56, 41.00000000000000000, #117 ) ;
#121 =( NAMED_UNIT ( * ) PLANE_ANGLE_UNIT ( ) SI_UNIT ( $, .RADIAN. ) );
#122 = CARTESIAN_POINT ( 'NONE',  ( 4.189777606611760026E-14, 2.375000000000018652, 12.00000000000000000 ) ) ;
#123 = SECURITY_CLASSIFICATION_LEVEL ( 'unclassified' ) ;
#124 = EDGE_LOOP ( 'NONE', ( #236 ) ) ;
#125 = COORDINATED_UNIVERSAL_TIME_OFFSET ( 1, 0, .AHEAD. ) ;
#126 = EDGE_LOOP ( 'NONE', ( #216 ) ) ;
#127 = AXIS2_PLACEMENT_3D ( 'NONE', #44, #206, #135 ) ;
#128 = DATE_AND_TIME ( #239, #4 ) ;
#129 = ORIENTED_EDGE ( 'NONE', *, *, #158, .F. ) ;
#130 = DIRECTION ( 'NONE',  ( -3.491481338843133355E-15, 1.224646799147353207E-16, -1.000000000000000000 ) ) ;
#131 = CARTESIAN_POINT ( 'NONE',  ( 2.793185071074506684E-13, -9.797174393178826052E-15, 80.00000000000000000 ) ) ;
#132 = FACE_OUTER_BOUND ( 'NONE', #124, .T. ) ;
#133 = DIRECTION ( 'NONE',  ( -3.491481338843133355E-15, 1.224646799147353207E-16, -1.000000000000000000 ) ) ;
#134 = EDGE_CURVE ( 'NONE', #51, #51, #8, .T. ) ;
#135 = DIRECTION ( 'NONE',  ( 4.275831445896958607E-31, 1.000000000000000000, 1.224646799147353207E-16 ) ) ;
#136 = APPROVAL_PERSON_ORGANIZATION ( #71, #102, #31 ) ;
#137 = DATE_AND_TIME ( #140, #120 ) ;
#138 = DIRECTION ( 'NONE',  ( 0.0000000000000000000, 0.0000000000000000000, 1.000000000000000000 ) ) ;
#139 = MANIFOLD_SOLID_BREP ( 'Corps-Déplacer/Copier1[1]', #36 ) ;
#140 = CALENDAR_DATE ( 2021, 2, 12 ) ;
#141 = CC_DESIGN_APPROVAL ( #102, ( #205 ) ) ;
#142 = DIRECTION ( 'NONE',  ( 3.491481338843133355E-15, -1.224646799147353207E-16, 1.000000000000000000 ) ) ;
#143 = AXIS2_PLACEMENT_3D ( 'NONE', #187, #169, #188 ) ;
#144 = CARTESIAN_POINT ( 'NONE',  ( -8.444767105646572465E-31, 2.962025570757196966E-32, -2.418677428316045208E-16 ) ) ;
#145 = COORDINATED_UNIVERSAL_TIME_OFFSET ( 1, 0, .AHEAD. ) ;
#146 = DIRECTION ( 'NONE',  ( -3.491481338843133355E-15, 1.224646799147353207E-16, -1.000000000000000000 ) ) ;
#147 = CC_DESIGN_PERSON_AND_ORGANIZATION_ASSIGNMENT ( #178, #240, ( #157 ) ) ;
#148 = FACE_OUTER_BOUND ( 'NONE', #179, .T. ) ;
#149 = DIRECTION ( 'NONE',  ( -3.491481338843133355E-15, 1.224646799147353207E-16, -1.000000000000000000 ) ) ;
#150 = DIRECTION ( 'NONE',  ( 0.0000000000000000000, 1.000000000000000000, 0.0000000000000000000 ) ) ;
#151 = CYLINDRICAL_SURFACE ( 'NONE', #127, 2.375000000000019984 ) ;
#152 = EDGE_CURVE ( 'NONE', #99, #99, #166, .T. ) ;
#153 = APPROVAL_DATE_TIME ( #155, #170 ) ;
#154 = CIRCLE ( 'NONE', #73, 2.375000000000019984 ) ;
#155 = DATE_AND_TIME ( #174, #103 ) ;
#156 = VERTEX_POINT ( 'NONE', #9 ) ;
#157 = PRODUCT_DEFINITION_FORMATION_WITH_SPECIFIED_SOURCE ( 'ANY', '', #46, .NOT_KNOWN. ) ;
#158 = EDGE_CURVE ( 'NONE', #197, #197, #115, .T. ) ;
#159 = PERSON_AND_ORGANIZATION ( #193, #23 ) ;
#160 = EDGE_LOOP ( 'NONE', ( #53 ) ) ;
#161 = ORIENTED_EDGE ( 'NONE', *, *, #86, .T. ) ;
#162 = APPROVAL_STATUS ( 'not_yet_approved' ) ;
#163 = ORIENTED_EDGE ( 'NONE', *, *, #69, .T. ) ;
#164 = APPLICATION_CONTEXT ( 'configuration controlled 3d designs of mechanical parts and assemblies' ) ;
#165 = PLANE ( 'NONE',  #209 ) ;
#166 = CIRCLE ( 'NONE', #173, 2.375000000000019984 ) ;
#167 = CARTESIAN_POINT ( 'NONE',  ( 4.416555971832586104E-14, -1.549119301881197728E-15, 12.64951905283837519 ) ) ;
#168 = FACE_OUTER_BOUND ( 'NONE', #104, .T. ) ;
#169 = DIRECTION ( 'NONE',  ( 3.491481338843133355E-15, -1.224646799147353207E-16, 1.000000000000000000 ) ) ;
#170 = APPROVAL ( #81, 'UNSPECIFIED' ) ;
#171 = CARTESIAN_POINT ( 'NONE',  ( 0.0000000000000000000, 0.0000000000000000000, 0.0000000000000000000 ) ) ;
#172 =( NAMED_UNIT ( * ) SI_UNIT ( $, .STERADIAN. ) SOLID_ANGLE_UNIT ( ) );
#173 = AXIS2_PLACEMENT_3D ( 'NONE', #19, #130, #74 ) ;
#174 = CALENDAR_DATE ( 2021, 2, 12 ) ;
#175 = ADVANCED_FACE ( 'NONE', ( #225, #132 ), #151, .T. ) ;
#176 = PERSON_AND_ORGANIZATION_ROLE ( 'design_owner' ) ;
#177 = APPROVAL_PERSON_ORGANIZATION ( #28, #72, #118 ) ;
#178 = PERSON_AND_ORGANIZATION ( #193, #23 ) ;
#179 = EDGE_LOOP ( 'NONE', ( #129 ) ) ;
#180 = CC_DESIGN_PERSON_AND_ORGANIZATION_ASSIGNMENT ( #119, #176, ( #46 ) ) ;
#181 = AXIS2_PLACEMENT_3D ( 'NONE', #97, #40, #58 ) ;
#182 = ORIENTED_EDGE ( 'NONE', *, *, #86, .F. ) ;
#183 = EDGE_LOOP ( 'NONE', ( #108 ) ) ;
#184 = DIRECTION ( 'NONE',  ( 4.275831445896958607E-31, 1.000000000000000000, 1.224646799147353207E-16 ) ) ;
#185 = CONICAL_SURFACE ( 'NONE', #200, 1.600000000000000977, 0.7853981633974512766 ) ;
#186 = DIRECTION ( 'NONE',  ( 0.0000000000000000000, 1.000000000000000000, 0.0000000000000000000 ) ) ;
#187 = CARTESIAN_POINT ( 'NONE',  ( -8.444767105646572465E-31, 2.962025570757196966E-32, -2.418677428316045208E-16 ) ) ;
#188 = DIRECTION ( 'NONE',  ( -4.275831445896959482E-31, -1.000000000000000000, -1.224646799147353207E-16 ) ) ;
#189 = CIRCLE ( 'NONE', #194, 1.975000000000018296 ) ;
#190 = DIRECTION ( 'NONE',  ( -3.491481338843133355E-15, 1.224646799147353207E-16, -1.000000000000000000 ) ) ;
#191 = VERTEX_POINT ( 'NONE', #195 ) ;
#192 = CARTESIAN_POINT ( 'NONE',  ( 4.189777606611760026E-14, 1.780964741910968910E-32, 12.00000000000000000 ) ) ;
#193 = PERSON ( 'UNSPECIFIED', 'UNSPECIFIED', 'UNSPECIFIED', ('UNSPECIFIED'), ('UNSPECIFIED'), ('UNSPECIFIED') ) ;
#194 = AXIS2_PLACEMENT_3D ( 'NONE', #144, #56, #109 ) ;
#195 = CARTESIAN_POINT ( 'NONE',  ( 2.779219145719134403E-13, 1.999999999999991340, 79.60000000000000853 ) ) ;
#196 = ADVANCED_FACE ( 'NONE', ( #42, #113 ), #242, .T. ) ;
#197 = VERTEX_POINT ( 'NONE', #63 ) ;
#198 = AXIS2_PLACEMENT_3D ( 'NONE', #167, #190, #186 ) ;
#199 = EDGE_LOOP ( 'NONE', ( #37 ) ) ;
#200 = AXIS2_PLACEMENT_3D ( 'NONE', #131, #146, #94 ) ;
#201 = CC_DESIGN_PERSON_AND_ORGANIZATION_ASSIGNMENT ( #67, #33, ( #157 ) ) ;
#202 = ORIENTED_EDGE ( 'NONE', *, *, #10, .F. ) ;
#203 = FACE_OUTER_BOUND ( 'NONE', #90, .T. ) ;
#204 = CARTESIAN_POINT ( 'NONE',  ( 4.189777606611760026E-14, -1.469576158976823947E-15, 12.00000000000000000 ) ) ;
#205 = SECURITY_CLASSIFICATION ( '', '', #123 ) ;
#206 = DIRECTION ( 'NONE',  ( -3.491481338843133355E-15, 1.224646799147353207E-16, -1.000000000000000000 ) ) ;
#207 = FACE_BOUND ( 'NONE', #16, .T. ) ;
#208 = DIRECTION ( 'NONE',  ( 0.0000000000000000000, 1.000000000000000000, 0.0000000000000000000 ) ) ;
#209 = AXIS2_PLACEMENT_3D ( 'NONE', #192, #142, #229 ) ;
#210 = CC_DESIGN_DATE_AND_TIME_ASSIGNMENT ( #54, #89, ( #205 ) ) ;
#211 = APPLICATION_PROTOCOL_DEFINITION ( 'international standard', 'config_control_design', 1994, #164 ) ;
#212 = CC_DESIGN_APPROVAL ( #72, ( #157 ) ) ;
#213 = CARTESIAN_POINT ( 'NONE',  ( 4.189777606611760026E-14, 2.375000000000018652, 12.00000000000000000 ) ) ;
#214 = MANIFOLD_SOLID_BREP ( 'Corps-Déplacer/Copier1[2]', #15 ) ;
#215 = MECHANICAL_CONTEXT ( 'NONE', #164, 'mechanical' ) ;
#216 = ORIENTED_EDGE ( 'NONE', *, *, #158, .T. ) ;
#217 = CIRCLE ( 'NONE', #96, 2.000000000000000888 ) ;
#218 = EDGE_LOOP ( 'NONE', ( #163 ) ) ;
#219 = ADVANCED_FACE ( 'NONE', ( #22, #5 ), #233, .T. ) ;
#220 = CALENDAR_DATE ( 2021, 2, 12 ) ;
#221 = AXIS2_PLACEMENT_3D ( 'NONE', #171, #224, #112 ) ;
#222 = CARTESIAN_POINT ( 'NONE',  ( 4.189777606611760026E-14, -1.469576158976823947E-15, 12.00000000000000000 ) ) ;
#223 = APPLICATION_CONTEXT ( 'configuration controlled 3d designs of mechanical parts and assemblies' ) ;
#224 = DIRECTION ( 'NONE',  ( -3.491481338843133355E-15, 1.224646799147353207E-16, -1.000000000000000000 ) ) ;
#225 = FACE_OUTER_BOUND ( 'NONE', #218, .T. ) ;
#226 = APPROVAL_PERSON_ORGANIZATION ( #101, #170, #48 ) ;
#227 = DIRECTION ( 'NONE',  ( 3.491481338843133355E-15, -1.224646799147353207E-16, 1.000000000000000000 ) ) ;
#228 = CYLINDRICAL_SURFACE ( 'NONE', #221, 1.999999999999996669 ) ;
#229 = DIRECTION ( 'NONE',  ( -4.275831445896958607E-31, -1.000000000000000000, -1.224646799147353207E-16 ) ) ;
#230 = AXIS2_PLACEMENT_3D ( 'NONE', #76, #57, #184 ) ;
#231 = CARTESIAN_POINT ( 'NONE',  ( 2.793185071074506684E-13, 1.599999999999991207, 80.00000000000000000 ) ) ;
#232 = VERTEX_POINT ( 'NONE', #213 ) ;
#233 = CONICAL_SURFACE ( 'NONE', #237, 2.375000000000019984, 0.5235987755982998149 ) ;
#234 = DIRECTION ( 'NONE',  ( 1.000000000000000000, 0.0000000000000000000, 0.0000000000000000000 ) ) ;
#235 = SHAPE_DEFINITION_REPRESENTATION ( #65, #52 ) ;
#236 = ORIENTED_EDGE ( 'NONE', *, *, #152, .F. ) ;
#237 = AXIS2_PLACEMENT_3D ( 'NONE', #80, #61, #208 ) ;
#238 = EDGE_LOOP ( 'NONE', ( #70 ) ) ;
#239 = CALENDAR_DATE ( 2021, 2, 12 ) ;
#240 = PERSON_AND_ORGANIZATION_ROLE ( 'design_supplier' ) ;
#241 = ADVANCED_FACE ( 'NONE', ( #24 ), #165, .T. ) ;
#242 = CONICAL_SURFACE ( 'NONE', #143, 1.975000000000018296, 0.7853981633974504994 ) ;
#243 = DIRECTION ( 'NONE',  ( -3.491481338843133355E-15, 1.224646799147353207E-16, -1.000000000000000000 ) ) ;
ENDSEC;
END-ISO-10303-21;
