ISO-10303-21;
HEADER;
FILE_DESCRIPTION (( 'STEP AP203' ),
    '1' );
FILE_NAME ('321700.step',
    '2021-12-02T12:56:40',
    ( '' ),
    ( '' ),
    'SwSTEP 2.0',
    'SolidWorks 2019',
    '' );
FILE_SCHEMA (( 'CONFIG_CONTROL_DESIGN' ));
ENDSEC;

DATA;
#1 = DIRECTION ( 'NONE',  ( -3.491481338843133355E-15, 1.224646799147353207E-16, -1.000000000000000000 ) ) ;
#2 = CARTESIAN_POINT ( 'NONE',  ( 2.793185071074506684E-13, -9.797174393178826052E-15, 80.00000000000000000 ) ) ;
#3 =( LENGTH_UNIT ( ) NAMED_UNIT ( * ) SI_UNIT ( .MILLI., .METRE. ) );
#4 = ADVANCED_FACE ( 'NONE', ( #143, #50 ), #209, .T. ) ;
#5 = CARTESIAN_POINT ( 'NONE',  ( 0.0000000000000000000, 1.970000000000018625, 0.0000000000000000000 ) ) ;
#6 = DATE_AND_TIME ( #178, #190 ) ;
#7 = APPROVAL ( #140, 'UNSPECIFIED' ) ;
#8 = CIRCLE ( 'NONE', #237, 1.970000000000018625 ) ;
#9 = ORIENTED_EDGE ( 'NONE', *, *, #56, .T. ) ;
#10 = APPROVAL ( #147, 'UNSPECIFIED' ) ;
#11 = FACE_OUTER_BOUND ( 'NONE', #126, .T. ) ;
#12 = APPLICATION_CONTEXT ( 'configuration controlled 3d designs of mechanical parts and assemblies' ) ;
#13 = DIRECTION ( 'NONE',  ( -3.491481338843133355E-15, 1.224646799147353207E-16, -1.000000000000000000 ) ) ;
#14 = DIRECTION ( 'NONE',  ( 0.0000000000000000000, 1.000000000000000000, 0.0000000000000000000 ) ) ;
#15 = CARTESIAN_POINT ( 'NONE',  ( 1.396592535537253145E-15, -4.898587196589411843E-17, 0.3999999999999999112 ) ) ;
#16 = AXIS2_PLACEMENT_3D ( 'NONE', #188, #95, #221 ) ;
#17 = LOCAL_TIME ( 13, 56, 40.00000000000000000, #175 ) ;
#18 = VERTEX_POINT ( 'NONE', #191 ) ;
#19 = VERTEX_POINT ( 'NONE', #102 ) ;
#20 = APPROVAL_STATUS ( 'not_yet_approved' ) ;
#21 = AXIS2_PLACEMENT_3D ( 'NONE', #112, #36, #205 ) ;
#22 = APPROVAL_PERSON_ORGANIZATION ( #149, #10, #53 ) ;
#23 = ADVANCED_FACE ( 'NONE', ( #232, #137 ), #100, .T. ) ;
#24 = CC_DESIGN_APPROVAL ( #7, ( #25 ) ) ;
#25 = PRODUCT_DEFINITION ( 'UNKNOWN', '', #35, #62 ) ;
#26 = PERSON_AND_ORGANIZATION_ROLE ( 'design_supplier' ) ;
#27 = AXIS2_PLACEMENT_3D ( 'NONE', #212, #157, #34 ) ;
#28 = DATE_AND_TIME ( #74, #87 ) ;
#29 = EDGE_LOOP ( 'NONE', ( #235 ) ) ;
#30 = DIRECTION ( 'NONE',  ( 0.0000000000000000000, 1.000000000000000000, 0.0000000000000000000 ) ) ;
#31 = CC_DESIGN_APPROVAL ( #10, ( #40 ) ) ;
#32 = ORIENTED_EDGE ( 'NONE', *, *, #88, .T. ) ;
#33 = DIRECTION ( 'NONE',  ( 4.275831445896958607E-31, 1.000000000000000000, 1.224646799147353207E-16 ) ) ;
#34 = DIRECTION ( 'NONE',  ( 4.275831445896958607E-31, 1.000000000000000000, 1.224646799147353207E-16 ) ) ;
#35 = PRODUCT_DEFINITION_FORMATION_WITH_SPECIFIED_SOURCE ( 'ANY', '', #41, .NOT_KNOWN. ) ;
#36 = DIRECTION ( 'NONE',  ( -3.491481338843133355E-15, 1.224646799147353207E-16, -1.000000000000000000 ) ) ;
#37 = FACE_OUTER_BOUND ( 'NONE', #29, .T. ) ;
#38 = CC_DESIGN_DATE_AND_TIME_ASSIGNMENT ( #192, #196, ( #25 ) ) ;
#39 = COORDINATED_UNIVERSAL_TIME_OFFSET ( 1, 0, .AHEAD. ) ;
#40 = SECURITY_CLASSIFICATION ( '', '', #76 ) ;
#41 = PRODUCT ( '321700', '321700', '', ( #160 ) ) ;
#42 = EDGE_CURVE ( 'NONE', #207, #207, #8, .T. ) ;
#43 = PERSON_AND_ORGANIZATION_ROLE ( 'creator' ) ;
#44 = APPROVAL_PERSON_ORGANIZATION ( #65, #179, #105 ) ;
#45 = EDGE_LOOP ( 'NONE', ( #165 ) ) ;
#46 = UNCERTAINTY_MEASURE_WITH_UNIT (LENGTH_MEASURE( 1.000000000000000082E-05 ), #3, 'distance_accuracy_value', 'NONE');
#47 = ORIENTED_EDGE ( 'NONE', *, *, #73, .F. ) ;
#48 = APPLICATION_PROTOCOL_DEFINITION ( 'international standard', 'config_control_design', 1994, #12 ) ;
#49 = CC_DESIGN_SECURITY_CLASSIFICATION ( #40, ( #35 ) ) ;
#50 = FACE_OUTER_BOUND ( 'NONE', #146, .T. ) ;
#51 = ORIENTED_EDGE ( 'NONE', *, *, #56, .F. ) ;
#52 = MANIFOLD_SOLID_BREP ( 'Corps-Déplacer/Copier1[1]', #202 ) ;
#53 = APPROVAL_ROLE ( '' ) ;
#54 = AXIS2_PLACEMENT_3D ( 'NONE', #59, #132, #77 ) ;
#55 = DIRECTION ( 'NONE',  ( 4.275831445896958607E-31, 1.000000000000000000, 1.224646799147352961E-16 ) ) ;
#56 = EDGE_CURVE ( 'NONE', #90, #90, #135, .T. ) ;
#57 = DIRECTION ( 'NONE',  ( 3.491481338843133355E-15, -1.224646799147353207E-16, 1.000000000000000000 ) ) ;
#58 = CALENDAR_DATE ( 2021, 2, 12 ) ;
#59 = CARTESIAN_POINT ( 'NONE',  ( 0.0000000000000000000, 0.0000000000000000000, 0.0000000000000000000 ) ) ;
#60 = AXIS2_PLACEMENT_3D ( 'NONE', #227, #136, #61 ) ;
#61 = DIRECTION ( 'NONE',  ( -4.275831445896958607E-31, -1.000000000000000000, -1.224646799147352961E-16 ) ) ;
#62 = DESIGN_CONTEXT ( 'detailed design', #12, 'design' ) ;
#63 = DIRECTION ( 'NONE',  ( -3.491481338843133355E-15, 1.224646799147353207E-16, -1.000000000000000000 ) ) ;
#64 = VERTEX_POINT ( 'NONE', #104 ) ;
#65 = PERSON_AND_ORGANIZATION ( #199, #89 ) ;
#66 = CC_DESIGN_PERSON_AND_ORGANIZATION_ASSIGNMENT ( #121, #26, ( #35 ) ) ;
#67 = PRODUCT_DEFINITION_SHAPE ( 'NONE', 'NONE',  #25 ) ;
#68 = CIRCLE ( 'NONE', #236, 1.600000000000000977 ) ;
#69 = EDGE_LOOP ( 'NONE', ( #201 ) ) ;
#70 = EDGE_LOOP ( 'NONE', ( #181 ) ) ;
#71 = ORIENTED_EDGE ( 'NONE', *, *, #42, .T. ) ;
#72 = EDGE_LOOP ( 'NONE', ( #220 ) ) ;
#73 = EDGE_CURVE ( 'NONE', #18, #18, #68, .T. ) ;
#74 = CALENDAR_DATE ( 2021, 2, 12 ) ;
#75 = ORIENTED_EDGE ( 'NONE', *, *, #164, .F. ) ;
#76 = SECURITY_CLASSIFICATION_LEVEL ( 'unclassified' ) ;
#77 = DIRECTION ( 'NONE',  ( 4.275831445896958607E-31, 1.000000000000000000, 1.224646799147353207E-16 ) ) ;
#78 = PRODUCT_RELATED_PRODUCT_CATEGORY ( 'detail', '', ( #41 ) ) ;
#79 = CIRCLE ( 'NONE', #153, 2.370000000000020535 ) ;
#80 = CYLINDRICAL_SURFACE ( 'NONE', #54, 1.999999999999996669 ) ;
#81 = DIRECTION ( 'NONE',  ( -3.491481338843133355E-15, 1.224646799147353207E-16, -1.000000000000000000 ) ) ;
#82 = DIRECTION ( 'NONE',  ( 4.063143342589069718E-31, 1.000000000000000000, 1.143673177727315372E-16 ) ) ;
#83 = DIRECTION ( 'NONE',  ( -3.491481338843133355E-15, 1.224646799147353207E-16, -1.000000000000000000 ) ) ;
#84 = ADVANCED_FACE ( 'NONE', ( #37, #99 ), #151, .T. ) ;
#85 = PERSON_AND_ORGANIZATION ( #199, #89 ) ;
#86 = CARTESIAN_POINT ( 'NONE',  ( 4.413532260296308599E-14, 1.999999999999990452, 12.64085879880053298 ) ) ;
#87 = LOCAL_TIME ( 13, 56, 40.00000000000000000, #224 ) ;
#88 = EDGE_CURVE ( 'NONE', #166, #166, #163, .T. ) ;
#89 = ORGANIZATION ( 'UNSPECIFIED', 'UNSPECIFIED', '' ) ;
#90 = VERTEX_POINT ( 'NONE', #86 ) ;
#91 = EDGE_LOOP ( 'NONE', ( #32 ) ) ;
#92 = CC_DESIGN_PERSON_AND_ORGANIZATION_ASSIGNMENT ( #130, #155, ( #40 ) ) ;
#93 = APPLICATION_CONTEXT ( 'configuration controlled 3d designs of mechanical parts and assemblies' ) ;
#94 = ADVANCED_BREP_SHAPE_REPRESENTATION ( '321700', ( #52, #139, #173 ), #218 ) ;
#95 = DIRECTION ( 'NONE',  ( 3.491481338843133355E-15, -1.224646799147353207E-16, 1.000000000000000000 ) ) ;
#96 = DIRECTION ( 'NONE',  ( 4.275831445896958607E-31, 1.000000000000000000, 1.224646799147353207E-16 ) ) ;
#97 = CONICAL_SURFACE ( 'NONE', #60, 1.970000000000018625, 0.7853981633974504994 ) ;
#98 = DIRECTION ( 'NONE',  ( -3.491481338843133355E-15, 1.224646799147353207E-16, -1.000000000000000000 ) ) ;
#99 = FACE_BOUND ( 'NONE', #70, .T. ) ;
#100 = CYLINDRICAL_SURFACE ( 'NONE', #161, 2.370000000000020535 ) ;
#101 = AXIS2_PLACEMENT_3D ( 'NONE', #185, #13, #159 ) ;
#102 = CARTESIAN_POINT ( 'NONE',  ( 4.189777606611760026E-14, 2.370000000000018758, 12.00000000000000000 ) ) ;
#103 = APPLICATION_PROTOCOL_DEFINITION ( 'international standard', 'config_control_design', 1994, #93 ) ;
#104 = CARTESIAN_POINT ( 'NONE',  ( 1.396592535537254131E-15, 2.370000000000020535, 0.4000000000000001887 ) ) ;
#105 = APPROVAL_ROLE ( '' ) ;
#106 = CC_DESIGN_DATE_AND_TIME_ASSIGNMENT ( #28, #206, ( #40 ) ) ;
#107 = AXIS2_PLACEMENT_3D ( 'NONE', #219, #200, #30 ) ;
#108 = COORDINATED_UNIVERSAL_TIME_OFFSET ( 1, 0, .AHEAD. ) ;
#109 = EDGE_LOOP ( 'NONE', ( #239 ) ) ;
#110 = AXIS2_PLACEMENT_3D ( 'NONE', #154, #111, #129 ) ;
#111 = DIRECTION ( 'NONE',  ( -3.491481338843133355E-15, 1.224646799147353207E-16, -1.000000000000000000 ) ) ;
#112 = CARTESIAN_POINT ( 'NONE',  ( 2.793185071074506684E-13, -9.797174393178826052E-15, 80.00000000000000000 ) ) ;
#113 = PLANE ( 'NONE',  #189 ) ;
#114 = FACE_OUTER_BOUND ( 'NONE', #198, .T. ) ;
#115 = FACE_OUTER_BOUND ( 'NONE', #45, .T. ) ;
#116 = CARTESIAN_POINT ( 'NONE',  ( 2.779219145719134403E-13, 1.999999999999991340, 79.60000000000000853 ) ) ;
#117 = CC_DESIGN_PERSON_AND_ORGANIZATION_ASSIGNMENT ( #85, #138, ( #25 ) ) ;
#118 = LOCAL_TIME ( 13, 56, 40.00000000000000000, #39 ) ;
#119 = CALENDAR_DATE ( 2021, 2, 12 ) ;
#120 = CARTESIAN_POINT ( 'NONE',  ( 4.189777606611760026E-14, 2.370000000000018758, 12.00000000000000000 ) ) ;
#121 = PERSON_AND_ORGANIZATION ( #199, #89 ) ;
#122 = ORIENTED_EDGE ( 'NONE', *, *, #204, .F. ) ;
#123 = APPROVAL_PERSON_ORGANIZATION ( #141, #7, #124 ) ;
#124 = APPROVAL_ROLE ( '' ) ;
#125 = EDGE_LOOP ( 'NONE', ( #233 ) ) ;
#126 = EDGE_LOOP ( 'NONE', ( #71 ) ) ;
#127 = AXIS2_PLACEMENT_3D ( 'NONE', #158, #98, #243 ) ;
#128 = ADVANCED_FACE ( 'NONE', ( #226, #240 ), #97, .T. ) ;
#129 = DIRECTION ( 'NONE',  ( 0.0000000000000000000, 1.000000000000000000, 0.0000000000000000000 ) ) ;
#130 = PERSON_AND_ORGANIZATION ( #199, #89 ) ;
#131 = DIRECTION ( 'NONE',  ( -4.275831445896958607E-31, -1.000000000000000000, -1.224646799147353207E-16 ) ) ;
#132 = DIRECTION ( 'NONE',  ( -3.491481338843133355E-15, 1.224646799147353207E-16, -1.000000000000000000 ) ) ;
#133 = EDGE_CURVE ( 'NONE', #230, #230, #134, .T. ) ;
#134 = CIRCLE ( 'NONE', #195, 2.370000000000020091 ) ;
#135 = CIRCLE ( 'NONE', #110, 1.999999999999992228 ) ;
#136 = DIRECTION ( 'NONE',  ( 3.491481338843133355E-15, -1.224646799147353207E-16, 1.000000000000000000 ) ) ;
#137 = FACE_OUTER_BOUND ( 'NONE', #148, .T. ) ;
#138 = PERSON_AND_ORGANIZATION_ROLE ( 'creator' ) ;
#139 = MANIFOLD_SOLID_BREP ( 'Corps-Déplacer/Copier1[2]', #142 ) ;
#140 = APPROVAL_STATUS ( 'not_yet_approved' ) ;
#141 = PERSON_AND_ORGANIZATION ( #199, #89 ) ;
#142 = CLOSED_SHELL ( 'NONE', ( #23, #211, #193, #128 ) ) ;
#143 = FACE_BOUND ( 'NONE', #197, .T. ) ;
#144 = DIRECTION ( 'NONE',  ( 1.000000000000000000, 0.0000000000000000000, 0.0000000000000000000 ) ) ;
#145 = CC_DESIGN_APPROVAL ( #179, ( #35 ) ) ;
#146 = EDGE_LOOP ( 'NONE', ( #75 ) ) ;
#147 = APPROVAL_STATUS ( 'not_yet_approved' ) ;
#148 = EDGE_LOOP ( 'NONE', ( #122 ) ) ;
#149 = PERSON_AND_ORGANIZATION ( #199, #89 ) ;
#150 = CARTESIAN_POINT ( 'NONE',  ( 4.189777606611760026E-14, -1.469576158976823947E-15, 12.00000000000000000 ) ) ;
#151 = CONICAL_SURFACE ( 'NONE', #21, 1.600000000000000977, 0.7853981633974512766 ) ;
#152 = COORDINATED_UNIVERSAL_TIME_OFFSET ( 1, 0, .AHEAD. ) ;
#153 = AXIS2_PLACEMENT_3D ( 'NONE', #15, #1, #82 ) ;
#154 = CARTESIAN_POINT ( 'NONE',  ( 4.413532260296308599E-14, -1.548058726642472881E-15, 12.64085879880053298 ) ) ;
#155 = PERSON_AND_ORGANIZATION_ROLE ( 'classification_officer' ) ;
#156 = CC_DESIGN_PERSON_AND_ORGANIZATION_ASSIGNMENT ( #216, #214, ( #41 ) ) ;
#157 = DIRECTION ( 'NONE',  ( -3.491481338843133355E-15, 1.224646799147353207E-16, -1.000000000000000000 ) ) ;
#158 = CARTESIAN_POINT ( 'NONE',  ( 4.189777606611760026E-14, -1.469576158976823947E-15, 12.00000000000000000 ) ) ;
#159 = DIRECTION ( 'NONE',  ( 0.0000000000000000000, 1.000000000000000000, 0.0000000000000000000 ) ) ;
#160 = MECHANICAL_CONTEXT ( 'NONE', #93, 'mechanical' ) ;
#161 = AXIS2_PLACEMENT_3D ( 'NONE', #208, #81, #33 ) ;
#162 = APPROVAL_DATE_TIME ( #6, #179 ) ;
#163 = CIRCLE ( 'NONE', #101, 2.000000000000000888 ) ;
#164 = EDGE_CURVE ( 'NONE', #19, #19, #231, .T. ) ;
#165 = ORIENTED_EDGE ( 'NONE', *, *, #164, .T. ) ;
#166 = VERTEX_POINT ( 'NONE', #116 ) ;
#167 = ADVANCED_FACE ( 'NONE', ( #223 ), #210, .F. ) ;
#168 = DIRECTION ( 'NONE',  ( -3.491481338843133355E-15, 1.224646799147353207E-16, -1.000000000000000000 ) ) ;
#169 = PLANE ( 'NONE',  #182 ) ;
#170 = DIRECTION ( 'NONE',  ( -3.491481338843133355E-15, 1.224646799147353207E-16, -1.000000000000000000 ) ) ;
#171 = DIRECTION ( 'NONE',  ( 0.0000000000000000000, 1.000000000000000000, 0.0000000000000000000 ) ) ;
#172 = FACE_OUTER_BOUND ( 'NONE', #109, .T. ) ;
#173 = AXIS2_PLACEMENT_3D ( 'NONE', #228, #176, #144 ) ;
#174 = ADVANCED_FACE ( 'NONE', ( #114, #225 ), #80, .T. ) ;
#175 = COORDINATED_UNIVERSAL_TIME_OFFSET ( 1, 0, .AHEAD. ) ;
#176 = DIRECTION ( 'NONE',  ( 0.0000000000000000000, 0.0000000000000000000, 1.000000000000000000 ) ) ;
#177 = ADVANCED_FACE ( 'NONE', ( #115 ), #187, .F. ) ;
#178 = CALENDAR_DATE ( 2021, 2, 12 ) ;
#179 = APPROVAL ( #20, 'UNSPECIFIED' ) ;
#180 =( NAMED_UNIT ( * ) PLANE_ANGLE_UNIT ( ) SI_UNIT ( $, .RADIAN. ) );
#181 = ORIENTED_EDGE ( 'NONE', *, *, #73, .T. ) ;
#182 = AXIS2_PLACEMENT_3D ( 'NONE', #242, #57, #131 ) ;
#183 = APPROVAL_DATE_TIME ( #222, #10 ) ;
#184 = CARTESIAN_POINT ( 'NONE',  ( -8.423387948417087751E-31, 2.954526771843887075E-32, -2.412554194320308333E-16 ) ) ;
#185 = CARTESIAN_POINT ( 'NONE',  ( 2.779219145719134403E-13, -9.748188521212932624E-15, 79.60000000000000853 ) ) ;
#186 = CARTESIAN_POINT ( 'NONE',  ( -4.211693974208543875E-31, 1.477263385921943538E-32, -1.206277097160154166E-16 ) ) ;
#187 = PLANE ( 'NONE',  #16 ) ;
#188 = CARTESIAN_POINT ( 'NONE',  ( 4.189777606611760026E-14, 1.777215342454314512E-32, 12.00000000000000000 ) ) ;
#189 = AXIS2_PLACEMENT_3D ( 'NONE', #186, #168, #96 ) ;
#190 = LOCAL_TIME ( 13, 56, 40.00000000000000000, #108 ) ;
#191 = CARTESIAN_POINT ( 'NONE',  ( 2.793185071074506684E-13, 1.599999999999991207, 80.00000000000000000 ) ) ;
#192 = DATE_AND_TIME ( #194, #118 ) ;
#193 = ADVANCED_FACE ( 'NONE', ( #11 ), #113, .T. ) ;
#194 = CALENDAR_DATE ( 2021, 2, 12 ) ;
#195 = AXIS2_PLACEMENT_3D ( 'NONE', #150, #63, #171 ) ;
#196 = DATE_TIME_ROLE ( 'creation_date' ) ;
#197 = EDGE_LOOP ( 'NONE', ( #9 ) ) ;
#198 = EDGE_LOOP ( 'NONE', ( #51 ) ) ;
#199 = PERSON ( 'UNSPECIFIED', 'UNSPECIFIED', 'UNSPECIFIED', ('UNSPECIFIED'), ('UNSPECIFIED'), ('UNSPECIFIED') ) ;
#200 = DIRECTION ( 'NONE',  ( -3.491481338843133355E-15, 1.224646799147353207E-16, -1.000000000000000000 ) ) ;
#201 = ORIENTED_EDGE ( 'NONE', *, *, #204, .T. ) ;
#202 = CLOSED_SHELL ( 'NONE', ( #177, #4, #174, #84, #167 ) ) ;
#203 = LOCAL_TIME ( 13, 56, 40.00000000000000000, #152 ) ;
#204 = EDGE_CURVE ( 'NONE', #64, #64, #79, .T. ) ;
#205 = DIRECTION ( 'NONE',  ( 0.0000000000000000000, 1.000000000000000000, 0.0000000000000000000 ) ) ;
#206 = DATE_TIME_ROLE ( 'classification_date' ) ;
#207 = VERTEX_POINT ( 'NONE', #5 ) ;
#208 = CARTESIAN_POINT ( 'NONE',  ( 0.0000000000000000000, 0.0000000000000000000, 0.0000000000000000000 ) ) ;
#209 = CONICAL_SURFACE ( 'NONE', #107, 2.370000000000020091, 0.5235987755982994818 ) ;
#210 = PLANE ( 'NONE',  #27 ) ;
#211 = ADVANCED_FACE ( 'NONE', ( #172 ), #169, .T. ) ;
#212 = CARTESIAN_POINT ( 'NONE',  ( 2.793185071074506684E-13, 1.199807826129472128E-32, 80.00000000000000000 ) ) ;
#213 = DATE_AND_TIME ( #119, #17 ) ;
#214 = PERSON_AND_ORGANIZATION_ROLE ( 'design_owner' ) ;
#215 = PERSON_AND_ORGANIZATION ( #199, #89 ) ;
#216 = PERSON_AND_ORGANIZATION ( #199, #89 ) ;
#217 = EDGE_LOOP ( 'NONE', ( #47 ) ) ;
#218 =( GEOMETRIC_REPRESENTATION_CONTEXT ( 3 ) GLOBAL_UNCERTAINTY_ASSIGNED_CONTEXT ( ( #46 ) ) GLOBAL_UNIT_ASSIGNED_CONTEXT ( ( #3, #180, #234 ) ) REPRESENTATION_CONTEXT ( 'NONE', 'WORKASPACE' ) );
#219 = CARTESIAN_POINT ( 'NONE',  ( 4.189777606611760026E-14, -1.469576158976823947E-15, 12.00000000000000000 ) ) ;
#220 = ORIENTED_EDGE ( 'NONE', *, *, #133, .T. ) ;
#221 = DIRECTION ( 'NONE',  ( -4.275831445896958607E-31, -1.000000000000000000, -1.224646799147353207E-16 ) ) ;
#222 = DATE_AND_TIME ( #58, #203 ) ;
#223 = FACE_OUTER_BOUND ( 'NONE', #217, .T. ) ;
#224 = COORDINATED_UNIVERSAL_TIME_OFFSET ( 1, 0, .AHEAD. ) ;
#225 = FACE_OUTER_BOUND ( 'NONE', #91, .T. ) ;
#226 = FACE_OUTER_BOUND ( 'NONE', #69, .T. ) ;
#227 = CARTESIAN_POINT ( 'NONE',  ( -8.423387948417087751E-31, 2.954526771843887075E-32, -2.412554194320308333E-16 ) ) ;
#228 = CARTESIAN_POINT ( 'NONE',  ( 0.0000000000000000000, 0.0000000000000000000, 0.0000000000000000000 ) ) ;
#229 = APPROVAL_DATE_TIME ( #213, #7 ) ;
#230 = VERTEX_POINT ( 'NONE', #120 ) ;
#231 = CIRCLE ( 'NONE', #127, 2.370000000000020091 ) ;
#232 = FACE_OUTER_BOUND ( 'NONE', #72, .T. ) ;
#233 = ORIENTED_EDGE ( 'NONE', *, *, #42, .F. ) ;
#234 =( NAMED_UNIT ( * ) SI_UNIT ( $, .STERADIAN. ) SOLID_ANGLE_UNIT ( ) );
#235 = ORIENTED_EDGE ( 'NONE', *, *, #88, .F. ) ;
#236 = AXIS2_PLACEMENT_3D ( 'NONE', #2, #83, #14 ) ;
#237 = AXIS2_PLACEMENT_3D ( 'NONE', #184, #170, #55 ) ;
#238 = SHAPE_DEFINITION_REPRESENTATION ( #67, #94 ) ;
#239 = ORIENTED_EDGE ( 'NONE', *, *, #133, .F. ) ;
#240 = FACE_BOUND ( 'NONE', #125, .T. ) ;
#241 = CC_DESIGN_PERSON_AND_ORGANIZATION_ASSIGNMENT ( #215, #43, ( #35 ) ) ;
#242 = CARTESIAN_POINT ( 'NONE',  ( 4.189777606611760026E-14, 1.777215342454314512E-32, 12.00000000000000000 ) ) ;
#243 = DIRECTION ( 'NONE',  ( 0.0000000000000000000, 1.000000000000000000, 0.0000000000000000000 ) ) ;
ENDSEC;
END-ISO-10303-21;
