ISO-10303-21;
HEADER;
FILE_DESCRIPTION (( 'STEP AP203' ),
    '1' );
FILE_NAME ('321699.step',
    '2021-12-02T12:56:39',
    ( '' ),
    ( '' ),
    'SwSTEP 2.0',
    'SolidWorks 2019',
    '' );
FILE_SCHEMA (( 'CONFIG_CONTROL_DESIGN' ));
ENDSEC;

DATA;
#1 = CC_DESIGN_DATE_AND_TIME_ASSIGNMENT ( #111, #91, ( #149 ) ) ;
#2 = DIRECTION ( 'NONE',  ( 0.0000000000000000000, 1.000000000000000000, 0.0000000000000000000 ) ) ;
#3 = AXIS2_PLACEMENT_3D ( 'NONE', #123, #163, #199 ) ;
#4 = EDGE_LOOP ( 'NONE', ( #11 ) ) ;
#5 = CYLINDRICAL_SURFACE ( 'NONE', #9, 2.365000000000020197 ) ;
#6 = ORIENTED_EDGE ( 'NONE', *, *, #176, .F. ) ;
#7 = DIRECTION ( 'NONE',  ( -3.491481338843133355E-15, 1.224646799147353207E-16, -1.000000000000000000 ) ) ;
#8 = FACE_BOUND ( 'NONE', #136, .T. ) ;
#9 = AXIS2_PLACEMENT_3D ( 'NONE', #190, #135, #63 ) ;
#10 = CARTESIAN_POINT ( 'NONE',  ( 1.396592535537251567E-15, -4.898587196589406296E-17, 0.3999999999999994671 ) ) ;
#11 = ORIENTED_EDGE ( 'NONE', *, *, #179, .F. ) ;
#12 = PERSON_AND_ORGANIZATION ( #131, #138 ) ;
#13 = CALENDAR_DATE ( 2021, 2, 12 ) ;
#14 = CALENDAR_DATE ( 2021, 2, 12 ) ;
#15 = EDGE_LOOP ( 'NONE', ( #194 ) ) ;
#16 = CALENDAR_DATE ( 2021, 2, 12 ) ;
#17 = ADVANCED_FACE ( 'NONE', ( #205, #23 ), #21, .T. ) ;
#18 = PERSON_AND_ORGANIZATION_ROLE ( 'creator' ) ;
#19 = LOCAL_TIME ( 13, 56, 39.00000000000000000, #109 ) ;
#20 = CIRCLE ( 'NONE', #55, 2.000000000000000888 ) ;
#21 = CYLINDRICAL_SURFACE ( 'NONE', #168, 1.999999999999996669 ) ;
#22 = CARTESIAN_POINT ( 'NONE',  ( 4.189777606611760026E-14, 1.773465942997660114E-32, 12.00000000000000000 ) ) ;
#23 = FACE_OUTER_BOUND ( 'NONE', #45, .T. ) ;
#24 = AXIS2_PLACEMENT_3D ( 'NONE', #117, #27, #230 ) ;
#25 = FACE_OUTER_BOUND ( 'NONE', #84, .T. ) ;
#26 = EDGE_LOOP ( 'NONE', ( #154 ) ) ;
#27 = DIRECTION ( 'NONE',  ( -3.491481338843133355E-15, 1.224646799147353207E-16, -1.000000000000000000 ) ) ;
#28 = EDGE_CURVE ( 'NONE', #119, #119, #66, .T. ) ;
#29 = AXIS2_PLACEMENT_3D ( 'NONE', #213, #62, #130 ) ;
#30 = VERTEX_POINT ( 'NONE', #102 ) ;
#31 = VERTEX_POINT ( 'NONE', #229 ) ;
#32 = EDGE_LOOP ( 'NONE', ( #34 ) ) ;
#33 = CC_DESIGN_DATE_AND_TIME_ASSIGNMENT ( #161, #53, ( #241 ) ) ;
#34 = ORIENTED_EDGE ( 'NONE', *, *, #239, .T. ) ;
#35 = COORDINATED_UNIVERSAL_TIME_OFFSET ( 1, 0, .AHEAD. ) ;
#36 = CLOSED_SHELL ( 'NONE', ( #44, #193, #17, #127, #132 ) ) ;
#37 = DIRECTION ( 'NONE',  ( -4.275831445896958607E-31, -1.000000000000000000, -1.224646799147353207E-16 ) ) ;
#38 = LOCAL_TIME ( 13, 56, 39.00000000000000000, #240 ) ;
#39 = FACE_OUTER_BOUND ( 'NONE', #4, .T. ) ;
#40 = CC_DESIGN_PERSON_AND_ORGANIZATION_ASSIGNMENT ( #12, #18, ( #149 ) ) ;
#41 = UNCERTAINTY_MEASURE_WITH_UNIT (LENGTH_MEASURE( 1.000000000000000082E-05 ), #106, 'distance_accuracy_value', 'NONE');
#42 = PRODUCT_DEFINITION_FORMATION_WITH_SPECIFIED_SOURCE ( 'ANY', '', #198, .NOT_KNOWN. ) ;
#43 = DIRECTION ( 'NONE',  ( 0.0000000000000000000, 1.000000000000000000, 0.0000000000000000000 ) ) ;
#44 = ADVANCED_FACE ( 'NONE', ( #223 ), #56, .F. ) ;
#45 = EDGE_LOOP ( 'NONE', ( #134 ) ) ;
#46 = FACE_OUTER_BOUND ( 'NONE', #191, .T. ) ;
#47 = DIRECTION ( 'NONE',  ( 4.071733497647398546E-31, 1.000000000000000000, 1.146091091422299403E-16 ) ) ;
#48 = DIRECTION ( 'NONE',  ( 0.0000000000000000000, 1.000000000000000000, 0.0000000000000000000 ) ) ;
#49 = APPROVAL ( #236, 'UNSPECIFIED' ) ;
#50 =( NAMED_UNIT ( * ) PLANE_ANGLE_UNIT ( ) SI_UNIT ( $, .RADIAN. ) );
#51 = MANIFOLD_SOLID_BREP ( 'Corps-Déplacer/Copier1[1]', #36 ) ;
#52 = PERSON_AND_ORGANIZATION_ROLE ( 'design_supplier' ) ;
#53 = DATE_TIME_ROLE ( 'classification_date' ) ;
#54 = APPROVAL_ROLE ( '' ) ;
#55 = AXIS2_PLACEMENT_3D ( 'NONE', #173, #89, #171 ) ;
#56 = PLANE ( 'NONE',  #82 ) ;
#57 = APPLICATION_CONTEXT ( 'configuration controlled 3d designs of mechanical parts and assemblies' ) ;
#58 = CIRCLE ( 'NONE', #231, 2.365000000000020197 ) ;
#59 = CARTESIAN_POINT ( 'NONE',  ( 4.410508548760030464E-14, -1.546998151403747640E-15, 12.63219854476268722 ) ) ;
#60 = APPLICATION_CONTEXT ( 'configuration controlled 3d designs of mechanical parts and assemblies' ) ;
#61 = CC_DESIGN_APPROVAL ( #77, ( #149 ) ) ;
#62 = DIRECTION ( 'NONE',  ( 3.491481338843133355E-15, -1.224646799147353207E-16, 1.000000000000000000 ) ) ;
#63 = DIRECTION ( 'NONE',  ( 4.275831445896958607E-31, 1.000000000000000000, 1.224646799147353207E-16 ) ) ;
#64 = PRODUCT_DEFINITION_SHAPE ( 'NONE', 'NONE',  #149 ) ;
#65 = PLANE ( 'NONE',  #24 ) ;
#66 = CIRCLE ( 'NONE', #201, 1.600000000000000977 ) ;
#67 = FACE_BOUND ( 'NONE', #189, .T. ) ;
#68 = EDGE_LOOP ( 'NONE', ( #174 ) ) ;
#69 = FACE_OUTER_BOUND ( 'NONE', #68, .T. ) ;
#70 = EDGE_LOOP ( 'NONE', ( #105 ) ) ;
#71 = COORDINATED_UNIVERSAL_TIME_OFFSET ( 1, 0, .AHEAD. ) ;
#72 = CALENDAR_DATE ( 2021, 2, 12 ) ;
#73 = APPROVAL_ROLE ( '' ) ;
#74 = DATE_AND_TIME ( #16, #19 ) ;
#75 = PERSON_AND_ORGANIZATION ( #131, #138 ) ;
#76 = CC_DESIGN_APPROVAL ( #49, ( #42 ) ) ;
#77 = APPROVAL ( #219, 'UNSPECIFIED' ) ;
#78 = CARTESIAN_POINT ( 'NONE',  ( 2.793185071074506684E-13, -9.797174393178826052E-15, 80.00000000000000000 ) ) ;
#79 = DIRECTION ( 'NONE',  ( 3.491481338843133355E-15, -1.224646799147353207E-16, 1.000000000000000000 ) ) ;
#80 = CARTESIAN_POINT ( 'NONE',  ( 2.793185071074506684E-13, -9.797174393178826052E-15, 80.00000000000000000 ) ) ;
#81 = LOCAL_TIME ( 13, 56, 39.00000000000000000, #71 ) ;
#82 = AXIS2_PLACEMENT_3D ( 'NONE', #206, #79, #37 ) ;
#83 = DIRECTION ( 'NONE',  ( 0.0000000000000000000, 1.000000000000000000, 0.0000000000000000000 ) ) ;
#84 = EDGE_LOOP ( 'NONE', ( #118 ) ) ;
#85 = DIRECTION ( 'NONE',  ( -3.491481338843133355E-15, 1.224646799147353207E-16, -1.000000000000000000 ) ) ;
#86 = APPROVAL ( #142, 'UNSPECIFIED' ) ;
#87 = VERTEX_POINT ( 'NONE', #120 ) ;
#88 =( GEOMETRIC_REPRESENTATION_CONTEXT ( 3 ) GLOBAL_UNCERTAINTY_ASSIGNED_CONTEXT ( ( #41 ) ) GLOBAL_UNIT_ASSIGNED_CONTEXT ( ( #106, #50, #93 ) ) REPRESENTATION_CONTEXT ( 'NONE', 'WORKASPACE' ) );
#89 = DIRECTION ( 'NONE',  ( -3.491481338843133355E-15, 1.224646799147353207E-16, -1.000000000000000000 ) ) ;
#90 = ORIENTED_EDGE ( 'NONE', *, *, #28, .T. ) ;
#91 = DATE_TIME_ROLE ( 'creation_date' ) ;
#92 = SECURITY_CLASSIFICATION_LEVEL ( 'unclassified' ) ;
#93 =( NAMED_UNIT ( * ) SI_UNIT ( $, .STERADIAN. ) SOLID_ANGLE_UNIT ( ) );
#94 = CC_DESIGN_PERSON_AND_ORGANIZATION_ASSIGNMENT ( #200, #122, ( #198 ) ) ;
#95 = PERSON_AND_ORGANIZATION ( #131, #138 ) ;
#96 = AXIS2_PLACEMENT_3D ( 'NONE', #101, #187, #210 ) ;
#97 = DIRECTION ( 'NONE',  ( 4.275831445896958607E-31, 1.000000000000000000, 1.224646799147353207E-16 ) ) ;
#98 = DIRECTION ( 'NONE',  ( 3.491481338843133355E-15, -1.224646799147353207E-16, 1.000000000000000000 ) ) ;
#99 = AXIS2_PLACEMENT_3D ( 'NONE', #192, #85, #128 ) ;
#100 = CARTESIAN_POINT ( 'NONE',  ( 4.189777606611760026E-14, -1.469576158976823947E-15, 12.00000000000000000 ) ) ;
#101 = CARTESIAN_POINT ( 'NONE',  ( -8.402008791187604788E-31, 2.947027972930578827E-32, -2.406430960324572443E-16 ) ) ;
#102 = CARTESIAN_POINT ( 'NONE',  ( 4.189777606611760026E-14, 2.365000000000018865, 12.00000000000000000 ) ) ;
#103 = EDGE_LOOP ( 'NONE', ( #170 ) ) ;
#104 = VERTEX_POINT ( 'NONE', #175 ) ;
#105 = ORIENTED_EDGE ( 'NONE', *, *, #222, .F. ) ;
#106 =( LENGTH_UNIT ( ) NAMED_UNIT ( * ) SI_UNIT ( .MILLI., .METRE. ) );
#107 = CONICAL_SURFACE ( 'NONE', #29, 1.965000000000018732, 0.7853981633974504994 ) ;
#108 = APPLICATION_PROTOCOL_DEFINITION ( 'international standard', 'config_control_design', 1994, #60 ) ;
#109 = COORDINATED_UNIVERSAL_TIME_OFFSET ( 1, 0, .AHEAD. ) ;
#110 = ADVANCED_FACE ( 'NONE', ( #39 ), #148, .T. ) ;
#111 = DATE_AND_TIME ( #124, #38 ) ;
#112 = CONICAL_SURFACE ( 'NONE', #126, 1.600000000000000977, 0.7853981633974512766 ) ;
#113 = DIRECTION ( 'NONE',  ( 0.0000000000000000000, 1.000000000000000000, 0.0000000000000000000 ) ) ;
#114 = EDGE_CURVE ( 'NONE', #31, #31, #237, .T. ) ;
#115 = DIRECTION ( 'NONE',  ( -3.491481338843133355E-15, 1.224646799147353207E-16, -1.000000000000000000 ) ) ;
#116 = DIRECTION ( 'NONE',  ( -3.491481338843133355E-15, 1.224646799147353207E-16, -1.000000000000000000 ) ) ;
#117 = CARTESIAN_POINT ( 'NONE',  ( -4.201004395593802394E-31, 1.473513986465289414E-32, -1.203215480162286222E-16 ) ) ;
#118 = ORIENTED_EDGE ( 'NONE', *, *, #239, .F. ) ;
#119 = VERTEX_POINT ( 'NONE', #153 ) ;
#120 = CARTESIAN_POINT ( 'NONE',  ( 4.189777606611760026E-14, 2.365000000000018865, 12.00000000000000000 ) ) ;
#121 = AXIS2_PLACEMENT_3D ( 'NONE', #155, #116, #48 ) ;
#122 = PERSON_AND_ORGANIZATION_ROLE ( 'design_owner' ) ;
#123 = CARTESIAN_POINT ( 'NONE',  ( 0.0000000000000000000, 0.0000000000000000000, 0.0000000000000000000 ) ) ;
#124 = CALENDAR_DATE ( 2021, 2, 12 ) ;
#125 = AXIS2_PLACEMENT_3D ( 'NONE', #59, #140, #2 ) ;
#126 = AXIS2_PLACEMENT_3D ( 'NONE', #80, #234, #151 ) ;
#127 = ADVANCED_FACE ( 'NONE', ( #232, #8 ), #112, .T. ) ;
#128 = DIRECTION ( 'NONE',  ( 4.275831445896958607E-31, 1.000000000000000000, 1.224646799147353207E-16 ) ) ;
#129 = VERTEX_POINT ( 'NONE', #212 ) ;
#130 = DIRECTION ( 'NONE',  ( -4.275831445896959482E-31, -1.000000000000000000, -1.224646799147353454E-16 ) ) ;
#131 = PERSON ( 'UNSPECIFIED', 'UNSPECIFIED', 'UNSPECIFIED', ('UNSPECIFIED'), ('UNSPECIFIED'), ('UNSPECIFIED') ) ;
#132 = ADVANCED_FACE ( 'NONE', ( #46 ), #188, .F. ) ;
#133 = FACE_OUTER_BOUND ( 'NONE', #157, .T. ) ;
#134 = ORIENTED_EDGE ( 'NONE', *, *, #222, .T. ) ;
#135 = DIRECTION ( 'NONE',  ( -3.491481338843133355E-15, 1.224646799147353207E-16, -1.000000000000000000 ) ) ;
#136 = EDGE_LOOP ( 'NONE', ( #90 ) ) ;
#137 = PERSON_AND_ORGANIZATION_ROLE ( 'creator' ) ;
#138 = ORGANIZATION ( 'UNSPECIFIED', 'UNSPECIFIED', '' ) ;
#139 = APPROVAL_ROLE ( '' ) ;
#140 = DIRECTION ( 'NONE',  ( -3.491481338843133355E-15, 1.224646799147353207E-16, -1.000000000000000000 ) ) ;
#141 = ADVANCED_FACE ( 'NONE', ( #228, #67 ), #107, .T. ) ;
#142 = APPROVAL_STATUS ( 'not_yet_approved' ) ;
#143 = APPROVAL_DATE_TIME ( #74, #86 ) ;
#144 = DIRECTION ( 'NONE',  ( -3.491481338843133355E-15, 1.224646799147353207E-16, -1.000000000000000000 ) ) ;
#145 = APPROVAL_PERSON_ORGANIZATION ( #197, #77, #139 ) ;
#146 = CC_DESIGN_SECURITY_CLASSIFICATION ( #241, ( #42 ) ) ;
#147 = DATE_AND_TIME ( #72, #81 ) ;
#148 = PLANE ( 'NONE',  #166 ) ;
#149 = PRODUCT_DEFINITION ( 'UNKNOWN', '', #42, #150 ) ;
#150 = DESIGN_CONTEXT ( 'detailed design', #57, 'design' ) ;
#151 = DIRECTION ( 'NONE',  ( 0.0000000000000000000, 1.000000000000000000, 0.0000000000000000000 ) ) ;
#152 = AXIS2_PLACEMENT_3D ( 'NONE', #100, #7, #83 ) ;
#153 = CARTESIAN_POINT ( 'NONE',  ( 2.793185071074506684E-13, 1.599999999999991207, 80.00000000000000000 ) ) ;
#154 = ORIENTED_EDGE ( 'NONE', *, *, #114, .T. ) ;
#155 = CARTESIAN_POINT ( 'NONE',  ( 4.189777606611760026E-14, -1.469576158976823947E-15, 12.00000000000000000 ) ) ;
#156 = CONICAL_SURFACE ( 'NONE', #121, 2.365000000000020197, 0.5235987755983002589 ) ;
#157 = EDGE_LOOP ( 'NONE', ( #215 ) ) ;
#158 = DIRECTION ( 'NONE',  ( -3.491481338843133355E-15, 1.224646799147353207E-16, -1.000000000000000000 ) ) ;
#159 = CC_DESIGN_PERSON_AND_ORGANIZATION_ASSIGNMENT ( #217, #52, ( #42 ) ) ;
#160 = ORIENTED_EDGE ( 'NONE', *, *, #176, .T. ) ;
#161 = DATE_AND_TIME ( #13, #172 ) ;
#162 = CIRCLE ( 'NONE', #96, 1.965000000000018732 ) ;
#163 = DIRECTION ( 'NONE',  ( 0.0000000000000000000, 0.0000000000000000000, 1.000000000000000000 ) ) ;
#164 = DATE_AND_TIME ( #14, #209 ) ;
#165 = COORDINATED_UNIVERSAL_TIME_OFFSET ( 1, 0, .AHEAD. ) ;
#166 = AXIS2_PLACEMENT_3D ( 'NONE', #22, #98, #225 ) ;
#167 = APPROVAL_PERSON_ORGANIZATION ( #75, #49, #54 ) ;
#168 = AXIS2_PLACEMENT_3D ( 'NONE', #243, #220, #97 ) ;
#169 = FACE_BOUND ( 'NONE', #26, .T. ) ;
#170 = ORIENTED_EDGE ( 'NONE', *, *, #181, .T. ) ;
#171 = DIRECTION ( 'NONE',  ( 0.0000000000000000000, 1.000000000000000000, 0.0000000000000000000 ) ) ;
#172 = LOCAL_TIME ( 13, 56, 39.00000000000000000, #165 ) ;
#173 = CARTESIAN_POINT ( 'NONE',  ( 2.779219145719134403E-13, -9.748188521212932624E-15, 79.60000000000000853 ) ) ;
#174 = ORIENTED_EDGE ( 'NONE', *, *, #179, .T. ) ;
#175 = CARTESIAN_POINT ( 'NONE',  ( 1.396592535537252553E-15, 2.365000000000020197, 0.3999999999999997446 ) ) ;
#176 = EDGE_CURVE ( 'NONE', #129, #129, #162, .T. ) ;
#177 = CARTESIAN_POINT ( 'NONE',  ( 2.779219145719134403E-13, 1.999999999999991340, 79.60000000000000853 ) ) ;
#178 = MECHANICAL_CONTEXT ( 'NONE', #60, 'mechanical' ) ;
#179 = EDGE_CURVE ( 'NONE', #30, #30, #227, .T. ) ;
#180 = PERSON_AND_ORGANIZATION ( #131, #138 ) ;
#181 = EDGE_CURVE ( 'NONE', #104, #104, #58, .T. ) ;
#182 = APPROVAL_PERSON_ORGANIZATION ( #238, #86, #73 ) ;
#183 = APPLICATION_PROTOCOL_DEFINITION ( 'international standard', 'config_control_design', 1994, #57 ) ;
#184 = APPROVAL_DATE_TIME ( #164, #77 ) ;
#185 = PRODUCT_RELATED_PRODUCT_CATEGORY ( 'detail', '', ( #198 ) ) ;
#186 = CIRCLE ( 'NONE', #152, 2.365000000000020197 ) ;
#187 = DIRECTION ( 'NONE',  ( -3.491481338843133355E-15, 1.224646799147353207E-16, -1.000000000000000000 ) ) ;
#188 = PLANE ( 'NONE',  #99 ) ;
#189 = EDGE_LOOP ( 'NONE', ( #6 ) ) ;
#190 = CARTESIAN_POINT ( 'NONE',  ( 0.0000000000000000000, 0.0000000000000000000, 0.0000000000000000000 ) ) ;
#191 = EDGE_LOOP ( 'NONE', ( #235 ) ) ;
#192 = CARTESIAN_POINT ( 'NONE',  ( 2.793185071074506684E-13, 1.199807826129472128E-32, 80.00000000000000000 ) ) ;
#193 = ADVANCED_FACE ( 'NONE', ( #169, #25 ), #156, .T. ) ;
#194 = ORIENTED_EDGE ( 'NONE', *, *, #114, .F. ) ;
#195 = FACE_OUTER_BOUND ( 'NONE', #211, .T. ) ;
#196 = CLOSED_SHELL ( 'NONE', ( #224, #110, #207, #141 ) ) ;
#197 = PERSON_AND_ORGANIZATION ( #131, #138 ) ;
#198 = PRODUCT ( '321699', '321699', '', ( #178 ) ) ;
#199 = DIRECTION ( 'NONE',  ( 1.000000000000000000, 0.0000000000000000000, 0.0000000000000000000 ) ) ;
#200 = PERSON_AND_ORGANIZATION ( #131, #138 ) ;
#201 = AXIS2_PLACEMENT_3D ( 'NONE', #78, #144, #113 ) ;
#202 = PERSON_AND_ORGANIZATION_ROLE ( 'classification_officer' ) ;
#203 = CC_DESIGN_PERSON_AND_ORGANIZATION_ASSIGNMENT ( #180, #137, ( #42 ) ) ;
#204 = ADVANCED_BREP_SHAPE_REPRESENTATION ( '321699', ( #51, #208, #3 ), #88 ) ;
#205 = FACE_OUTER_BOUND ( 'NONE', #15, .T. ) ;
#206 = CARTESIAN_POINT ( 'NONE',  ( 4.189777606611760026E-14, 1.773465942997660114E-32, 12.00000000000000000 ) ) ;
#207 = ADVANCED_FACE ( 'NONE', ( #195 ), #65, .T. ) ;
#208 = MANIFOLD_SOLID_BREP ( 'Corps-Déplacer/Copier1[2]', #196 ) ;
#209 = LOCAL_TIME ( 13, 56, 39.00000000000000000, #35 ) ;
#210 = DIRECTION ( 'NONE',  ( 4.275831445896959482E-31, 1.000000000000000000, 1.224646799147353454E-16 ) ) ;
#211 = EDGE_LOOP ( 'NONE', ( #160 ) ) ;
#212 = CARTESIAN_POINT ( 'NONE',  ( 0.0000000000000000000, 1.965000000000018732, 0.0000000000000000000 ) ) ;
#213 = CARTESIAN_POINT ( 'NONE',  ( -8.402008791187604788E-31, 2.947027972930578827E-32, -2.406430960324572443E-16 ) ) ;
#214 = VERTEX_POINT ( 'NONE', #177 ) ;
#215 = ORIENTED_EDGE ( 'NONE', *, *, #181, .F. ) ;
#216 = CARTESIAN_POINT ( 'NONE',  ( 4.189777606611760026E-14, -1.469576158976823947E-15, 12.00000000000000000 ) ) ;
#217 = PERSON_AND_ORGANIZATION ( #131, #138 ) ;
#218 = APPROVAL_DATE_TIME ( #147, #49 ) ;
#219 = APPROVAL_STATUS ( 'not_yet_approved' ) ;
#220 = DIRECTION ( 'NONE',  ( -3.491481338843133355E-15, 1.224646799147353207E-16, -1.000000000000000000 ) ) ;
#221 = SHAPE_DEFINITION_REPRESENTATION ( #64, #204 ) ;
#222 = EDGE_CURVE ( 'NONE', #214, #214, #20, .T. ) ;
#223 = FACE_OUTER_BOUND ( 'NONE', #32, .T. ) ;
#224 = ADVANCED_FACE ( 'NONE', ( #69, #133 ), #5, .T. ) ;
#225 = DIRECTION ( 'NONE',  ( -4.275831445896958607E-31, -1.000000000000000000, -1.224646799147353207E-16 ) ) ;
#226 = CC_DESIGN_PERSON_AND_ORGANIZATION_ASSIGNMENT ( #95, #202, ( #241 ) ) ;
#227 = CIRCLE ( 'NONE', #242, 2.365000000000020197 ) ;
#228 = FACE_OUTER_BOUND ( 'NONE', #103, .T. ) ;
#229 = CARTESIAN_POINT ( 'NONE',  ( 4.410508548760030464E-14, 1.999999999999990452, 12.63219854476268722 ) ) ;
#230 = DIRECTION ( 'NONE',  ( 4.275831445896958607E-31, 1.000000000000000000, 1.224646799147353207E-16 ) ) ;
#231 = AXIS2_PLACEMENT_3D ( 'NONE', #10, #115, #47 ) ;
#232 = FACE_OUTER_BOUND ( 'NONE', #70, .T. ) ;
#233 = CC_DESIGN_APPROVAL ( #86, ( #241 ) ) ;
#234 = DIRECTION ( 'NONE',  ( -3.491481338843133355E-15, 1.224646799147353207E-16, -1.000000000000000000 ) ) ;
#235 = ORIENTED_EDGE ( 'NONE', *, *, #28, .F. ) ;
#236 = APPROVAL_STATUS ( 'not_yet_approved' ) ;
#237 = CIRCLE ( 'NONE', #125, 1.999999999999992228 ) ;
#238 = PERSON_AND_ORGANIZATION ( #131, #138 ) ;
#239 = EDGE_CURVE ( 'NONE', #87, #87, #186, .T. ) ;
#240 = COORDINATED_UNIVERSAL_TIME_OFFSET ( 1, 0, .AHEAD. ) ;
#241 = SECURITY_CLASSIFICATION ( '', '', #92 ) ;
#242 = AXIS2_PLACEMENT_3D ( 'NONE', #216, #158, #43 ) ;
#243 = CARTESIAN_POINT ( 'NONE',  ( 0.0000000000000000000, 0.0000000000000000000, 0.0000000000000000000 ) ) ;
ENDSEC;
END-ISO-10303-21;
