ISO-10303-21;
HEADER;
FILE_DESCRIPTION (( 'STEP AP203' ),
    '1' );
FILE_NAME ('321698.step',
    '2021-12-02T12:56:39',
    ( '' ),
    ( '' ),
    'SwSTEP 2.0',
    'SolidWorks 2019',
    '' );
FILE_SCHEMA (( 'CONFIG_CONTROL_DESIGN' ));
ENDSEC;

DATA;
#1 = DATE_AND_TIME ( #242, #14 ) ;
#2 = DIRECTION ( 'NONE',  ( 0.0000000000000000000, 1.000000000000000000, 0.0000000000000000000 ) ) ;
#3 = CARTESIAN_POINT ( 'NONE',  ( 4.189777606611760026E-14, -1.469576158976823947E-15, 12.00000000000000000 ) ) ;
#4 = ORIENTED_EDGE ( 'NONE', *, *, #142, .F. ) ;
#5 = EDGE_CURVE ( 'NONE', #88, #88, #108, .T. ) ;
#6 = EDGE_LOOP ( 'NONE', ( #208 ) ) ;
#7 = CARTESIAN_POINT ( 'NONE',  ( 2.779219145719134403E-13, -9.748188521212932624E-15, 79.60000000000000853 ) ) ;
#8 = CONICAL_SURFACE ( 'NONE', #13, 1.960000000000018616, 0.7853981633974500554 ) ;
#9 = PERSON_AND_ORGANIZATION ( #202, #177 ) ;
#10 = ADVANCED_FACE ( 'NONE', ( #234, #59 ), #169, .T. ) ;
#11 = COORDINATED_UNIVERSAL_TIME_OFFSET ( 1, 0, .AHEAD. ) ;
#12 = DIRECTION ( 'NONE',  ( 4.275831445896958607E-31, 1.000000000000000000, 1.224646799147353207E-16 ) ) ;
#13 = AXIS2_PLACEMENT_3D ( 'NONE', #65, #214, #181 ) ;
#14 = LOCAL_TIME ( 13, 56, 39.00000000000000000, #149 ) ;
#15 = CARTESIAN_POINT ( 'NONE',  ( -4.190314816979059161E-31, 1.469764587008634469E-32, -1.200153863164417537E-16 ) ) ;
#16 = ADVANCED_FACE ( 'NONE', ( #231 ), #43, .F. ) ;
#17 = DIRECTION ( 'NONE',  ( 0.0000000000000000000, 0.0000000000000000000, 1.000000000000000000 ) ) ;
#18 = ORIENTED_EDGE ( 'NONE', *, *, #213, .T. ) ;
#19 = CC_DESIGN_DATE_AND_TIME_ASSIGNMENT ( #51, #133, ( #172 ) ) ;
#20 = EDGE_LOOP ( 'NONE', ( #243 ) ) ;
#21 = ORIENTED_EDGE ( 'NONE', *, *, #173, .T. ) ;
#22 = DIRECTION ( 'NONE',  ( 0.0000000000000000000, 1.000000000000000000, 0.0000000000000000000 ) ) ;
#23 = AXIS2_PLACEMENT_3D ( 'NONE', #116, #112, #131 ) ;
#24 = EDGE_LOOP ( 'NONE', ( #95 ) ) ;
#25 = FACE_OUTER_BOUND ( 'NONE', #6, .T. ) ;
#26 = ORIENTED_EDGE ( 'NONE', *, *, #167, .F. ) ;
#27 = DIRECTION ( 'NONE',  ( -3.491481338843133355E-15, 1.224646799147353207E-16, -1.000000000000000000 ) ) ;
#28 = CARTESIAN_POINT ( 'NONE',  ( 0.0000000000000000000, 1.960000000000018616, 0.0000000000000000000 ) ) ;
#29 = VERTEX_POINT ( 'NONE', #67 ) ;
#30 =( NAMED_UNIT ( * ) SI_UNIT ( $, .STERADIAN. ) SOLID_ANGLE_UNIT ( ) );
#31 = ADVANCED_BREP_SHAPE_REPRESENTATION ( '321698', ( #217, #122, #33 ), #204 ) ;
#32 = DATE_AND_TIME ( #201, #63 ) ;
#33 = AXIS2_PLACEMENT_3D ( 'NONE', #187, #17, #161 ) ;
#34 = ORIENTED_EDGE ( 'NONE', *, *, #5, .F. ) ;
#35 = PRODUCT ( '321698', '321698', '', ( #118 ) ) ;
#36 = APPLICATION_CONTEXT ( 'configuration controlled 3d designs of mechanical parts and assemblies' ) ;
#37 = PRODUCT_RELATED_PRODUCT_CATEGORY ( 'detail', '', ( #35 ) ) ;
#38 = CC_DESIGN_APPROVAL ( #103, ( #69 ) ) ;
#39 = CARTESIAN_POINT ( 'NONE',  ( 0.0000000000000000000, 0.0000000000000000000, 0.0000000000000000000 ) ) ;
#40 = DIRECTION ( 'NONE',  ( 0.0000000000000000000, 1.000000000000000000, 0.0000000000000000000 ) ) ;
#41 = APPROVAL ( #82, 'UNSPECIFIED' ) ;
#42 = CIRCLE ( 'NONE', #164, 1.600000000000000977 ) ;
#43 = PLANE ( 'NONE',  #241 ) ;
#44 = PERSON_AND_ORGANIZATION ( #202, #177 ) ;
#45 = EDGE_LOOP ( 'NONE', ( #196 ) ) ;
#46 = CARTESIAN_POINT ( 'NONE',  ( 2.793185071074506684E-13, -9.797174393178826052E-15, 80.00000000000000000 ) ) ;
#47 = CLOSED_SHELL ( 'NONE', ( #16, #49, #90, #10, #225 ) ) ;
#48 = PLANE ( 'NONE',  #127 ) ;
#49 = ADVANCED_FACE ( 'NONE', ( #79, #132 ), #139, .T. ) ;
#50 = CARTESIAN_POINT ( 'NONE',  ( -8.380629633958118322E-31, 2.939529174017268937E-32, -2.400307726328835074E-16 ) ) ;
#51 = DATE_AND_TIME ( #120, #64 ) ;
#52 = DIRECTION ( 'NONE',  ( -3.491481338843133355E-15, 1.224646799147353207E-16, -1.000000000000000000 ) ) ;
#53 = AXIS2_PLACEMENT_3D ( 'NONE', #121, #52, #140 ) ;
#54 = DATE_AND_TIME ( #226, #56 ) ;
#55 = EDGE_LOOP ( 'NONE', ( #4 ) ) ;
#56 = LOCAL_TIME ( 13, 56, 39.00000000000000000, #11 ) ;
#57 = ADVANCED_FACE ( 'NONE', ( #77, #99 ), #136, .T. ) ;
#58 = DIRECTION ( 'NONE',  ( 0.0000000000000000000, 1.000000000000000000, 0.0000000000000000000 ) ) ;
#59 = FACE_BOUND ( 'NONE', #128, .T. ) ;
#60 = DIRECTION ( 'NONE',  ( 3.491481338843133355E-15, -1.224646799147353207E-16, 1.000000000000000000 ) ) ;
#61 = ADVANCED_FACE ( 'NONE', ( #179 ), #193, .T. ) ;
#62 = DIRECTION ( 'NONE',  ( -3.491481338843133355E-15, 1.224646799147353207E-16, -1.000000000000000000 ) ) ;
#63 = LOCAL_TIME ( 13, 56, 39.00000000000000000, #125 ) ;
#64 = LOCAL_TIME ( 13, 56, 39.00000000000000000, #83 ) ;
#65 = CARTESIAN_POINT ( 'NONE',  ( -8.380629633958118322E-31, 2.939529174017268937E-32, -2.400307726328835074E-16 ) ) ;
#66 = DIRECTION ( 'NONE',  ( 4.275831445896958607E-31, 1.000000000000000000, 1.224646799147353207E-16 ) ) ;
#67 = CARTESIAN_POINT ( 'NONE',  ( 2.793185071074506684E-13, 1.599999999999991207, 80.00000000000000000 ) ) ;
#68 = VERTEX_POINT ( 'NONE', #236 ) ;
#69 = PRODUCT_DEFINITION_FORMATION_WITH_SPECIFIED_SOURCE ( 'ANY', '', #35, .NOT_KNOWN. ) ;
#70 = PERSON_AND_ORGANIZATION_ROLE ( 'classification_officer' ) ;
#71 = FACE_OUTER_BOUND ( 'NONE', #176, .T. ) ;
#72 = APPROVAL_DATE_TIME ( #54, #41 ) ;
#73 = AXIS2_PLACEMENT_3D ( 'NONE', #180, #205, #2 ) ;
#74 = ORIENTED_EDGE ( 'NONE', *, *, #151, .T. ) ;
#75 = DESIGN_CONTEXT ( 'detailed design', #192, 'design' ) ;
#76 = FACE_OUTER_BOUND ( 'NONE', #45, .T. ) ;
#77 = FACE_OUTER_BOUND ( 'NONE', #159, .T. ) ;
#78 = DIRECTION ( 'NONE',  ( -3.491481338843133355E-15, 1.224646799147353207E-16, -1.000000000000000000 ) ) ;
#79 = FACE_BOUND ( 'NONE', #150, .T. ) ;
#80 = CC_DESIGN_PERSON_AND_ORGANIZATION_ASSIGNMENT ( #87, #166, ( #69 ) ) ;
#81 = DIRECTION ( 'NONE',  ( -3.491481338843133355E-15, 1.224646799147353207E-16, -1.000000000000000000 ) ) ;
#82 = APPROVAL_STATUS ( 'not_yet_approved' ) ;
#83 = COORDINATED_UNIVERSAL_TIME_OFFSET ( 1, 0, .AHEAD. ) ;
#84 = COORDINATED_UNIVERSAL_TIME_OFFSET ( 1, 0, .AHEAD. ) ;
#85 = PLANE ( 'NONE',  #53 ) ;
#86 = CLOSED_SHELL ( 'NONE', ( #57, #61, #162, #146 ) ) ;
#87 = PERSON_AND_ORGANIZATION ( #202, #177 ) ;
#88 = VERTEX_POINT ( 'NONE', #235 ) ;
#89 = APPROVAL_ROLE ( '' ) ;
#90 = ADVANCED_FACE ( 'NONE', ( #76, #155 ), #232, .T. ) ;
#91 = AXIS2_PLACEMENT_3D ( 'NONE', #209, #115, #195 ) ;
#92 = EDGE_LOOP ( 'NONE', ( #34 ) ) ;
#93 = ORIENTED_EDGE ( 'NONE', *, *, #142, .T. ) ;
#94 = DIRECTION ( 'NONE',  ( 3.491481338843133355E-15, -1.224646799147353207E-16, 1.000000000000000000 ) ) ;
#95 = ORIENTED_EDGE ( 'NONE', *, *, #5, .T. ) ;
#96 = CARTESIAN_POINT ( 'NONE',  ( 4.189777606611760026E-14, -1.469576158976823947E-15, 12.00000000000000000 ) ) ;
#97 = FACE_BOUND ( 'NONE', #20, .T. ) ;
#98 = PRODUCT_DEFINITION ( 'UNKNOWN', '', #69, #75 ) ;
#99 = FACE_OUTER_BOUND ( 'NONE', #207, .T. ) ;
#100 = CC_DESIGN_APPROVAL ( #41, ( #98 ) ) ;
#101 = PERSON_AND_ORGANIZATION_ROLE ( 'design_owner' ) ;
#102 = DIRECTION ( 'NONE',  ( 0.0000000000000000000, 1.000000000000000000, 0.0000000000000000000 ) ) ;
#103 = APPROVAL ( #188, 'UNSPECIFIED' ) ;
#104 = DIRECTION ( 'NONE',  ( -3.491481338843133355E-15, 1.224646799147353207E-16, -1.000000000000000000 ) ) ;
#105 = VERTEX_POINT ( 'NONE', #28 ) ;
#106 = AXIS2_PLACEMENT_3D ( 'NONE', #3, #78, #22 ) ;
#107 = PERSON_AND_ORGANIZATION ( #202, #177 ) ;
#108 = CIRCLE ( 'NONE', #109, 2.360000000000019860 ) ;
#109 = AXIS2_PLACEMENT_3D ( 'NONE', #96, #81, #40 ) ;
#110 = CARTESIAN_POINT ( 'NONE',  ( 4.189777606611760026E-14, 1.769716543541005169E-32, 12.00000000000000000 ) ) ;
#111 = CC_DESIGN_PERSON_AND_ORGANIZATION_ASSIGNMENT ( #158, #70, ( #172 ) ) ;
#112 = DIRECTION ( 'NONE',  ( -3.491481338843133355E-15, 1.224646799147353207E-16, -1.000000000000000000 ) ) ;
#113 = DIRECTION ( 'NONE',  ( -4.275831445896958607E-31, -1.000000000000000000, -1.224646799147353207E-16 ) ) ;
#114 = AXIS2_PLACEMENT_3D ( 'NONE', #39, #152, #194 ) ;
#115 = DIRECTION ( 'NONE',  ( -3.491481338843133355E-15, 1.224646799147353207E-16, -1.000000000000000000 ) ) ;
#116 = CARTESIAN_POINT ( 'NONE',  ( 0.0000000000000000000, 0.0000000000000000000, 0.0000000000000000000 ) ) ;
#117 = CARTESIAN_POINT ( 'NONE',  ( 4.407484837223753591E-14, 1.999999999999990452, 12.62353829072484324 ) ) ;
#118 = MECHANICAL_CONTEXT ( 'NONE', #36, 'mechanical' ) ;
#119 = EDGE_CURVE ( 'NONE', #222, #222, #198, .T. ) ;
#120 = CALENDAR_DATE ( 2021, 2, 12 ) ;
#121 = CARTESIAN_POINT ( 'NONE',  ( 2.793185071074506684E-13, 1.199807826129472128E-32, 80.00000000000000000 ) ) ;
#122 = MANIFOLD_SOLID_BREP ( 'Corps-Déplacer/Copier1[2]', #86 ) ;
#123 = CC_DESIGN_PERSON_AND_ORGANIZATION_ASSIGNMENT ( #144, #240, ( #98 ) ) ;
#124 = LOCAL_TIME ( 13, 56, 39.00000000000000000, #84 ) ;
#125 = COORDINATED_UNIVERSAL_TIME_OFFSET ( 1, 0, .AHEAD. ) ;
#126 = SHAPE_DEFINITION_REPRESENTATION ( #147, #31 ) ;
#127 = AXIS2_PLACEMENT_3D ( 'NONE', #15, #104, #12 ) ;
#128 = EDGE_LOOP ( 'NONE', ( #228 ) ) ;
#129 = CC_DESIGN_PERSON_AND_ORGANIZATION_ASSIGNMENT ( #239, #216, ( #69 ) ) ;
#130 = EDGE_LOOP ( 'NONE', ( #203 ) ) ;
#131 = DIRECTION ( 'NONE',  ( 4.275831445896959482E-31, 1.000000000000000000, 1.224646799147353454E-16 ) ) ;
#132 = FACE_OUTER_BOUND ( 'NONE', #92, .T. ) ;
#133 = DATE_TIME_ROLE ( 'classification_date' ) ;
#134 = DIRECTION ( 'NONE',  ( 4.080360051667838502E-31, 1.000000000000000000, 1.148519250514295955E-16 ) ) ;
#135 = APPROVAL_PERSON_ORGANIZATION ( #9, #41, #138 ) ;
#136 = CYLINDRICAL_SURFACE ( 'NONE', #23, 2.360000000000019860 ) ;
#137 = CARTESIAN_POINT ( 'NONE',  ( 1.396592535537254131E-15, 2.360000000000019860, 0.4000000000000001887 ) ) ;
#138 = APPROVAL_ROLE ( '' ) ;
#139 = CONICAL_SURFACE ( 'NONE', #106, 2.360000000000019860, 0.5235987755982993708 ) ;
#140 = DIRECTION ( 'NONE',  ( 4.275831445896958607E-31, 1.000000000000000000, 1.224646799147353207E-16 ) ) ;
#141 = CARTESIAN_POINT ( 'NONE',  ( 4.189777606611760026E-14, 2.360000000000018971, 12.00000000000000000 ) ) ;
#142 = EDGE_CURVE ( 'NONE', #163, #163, #183, .T. ) ;
#143 = FACE_OUTER_BOUND ( 'NONE', #190, .T. ) ;
#144 = PERSON_AND_ORGANIZATION ( #202, #177 ) ;
#145 = CIRCLE ( 'NONE', #160, 1.999999999999992228 ) ;
#146 = ADVANCED_FACE ( 'NONE', ( #25, #97 ), #8, .T. ) ;
#147 = PRODUCT_DEFINITION_SHAPE ( 'NONE', 'NONE',  #98 ) ;
#148 = CC_DESIGN_SECURITY_CLASSIFICATION ( #172, ( #69 ) ) ;
#149 = COORDINATED_UNIVERSAL_TIME_OFFSET ( 1, 0, .AHEAD. ) ;
#150 = EDGE_LOOP ( 'NONE', ( #18 ) ) ;
#151 = EDGE_CURVE ( 'NONE', #68, #68, #230, .T. ) ;
#152 = DIRECTION ( 'NONE',  ( -3.491481338843133355E-15, 1.224646799147353207E-16, -1.000000000000000000 ) ) ;
#153 = CIRCLE ( 'NONE', #189, 1.960000000000018616 ) ;
#154 = UNCERTAINTY_MEASURE_WITH_UNIT (LENGTH_MEASURE( 1.000000000000000082E-05 ), #238, 'distance_accuracy_value', 'NONE');
#155 = FACE_OUTER_BOUND ( 'NONE', #170, .T. ) ;
#156 = DIRECTION ( 'NONE',  ( -4.275831445896958607E-31, -1.000000000000000000, -1.224646799147353207E-16 ) ) ;
#157 = CC_DESIGN_PERSON_AND_ORGANIZATION_ASSIGNMENT ( #197, #101, ( #35 ) ) ;
#158 = PERSON_AND_ORGANIZATION ( #202, #177 ) ;
#159 = EDGE_LOOP ( 'NONE', ( #93 ) ) ;
#160 = AXIS2_PLACEMENT_3D ( 'NONE', #221, #218, #199 ) ;
#161 = DIRECTION ( 'NONE',  ( 1.000000000000000000, 0.0000000000000000000, 0.0000000000000000000 ) ) ;
#162 = ADVANCED_FACE ( 'NONE', ( #143 ), #48, .T. ) ;
#163 = VERTEX_POINT ( 'NONE', #141 ) ;
#164 = AXIS2_PLACEMENT_3D ( 'NONE', #46, #27, #102 ) ;
#165 = VERTEX_POINT ( 'NONE', #117 ) ;
#166 = PERSON_AND_ORGANIZATION_ROLE ( 'creator' ) ;
#167 = EDGE_CURVE ( 'NONE', #29, #29, #42, .T. ) ;
#168 = DATE_TIME_ROLE ( 'creation_date' ) ;
#169 = CONICAL_SURFACE ( 'NONE', #73, 1.600000000000000977, 0.7853981633974512766 ) ;
#170 = EDGE_LOOP ( 'NONE', ( #74 ) ) ;
#171 = AXIS2_PLACEMENT_3D ( 'NONE', #191, #94, #156 ) ;
#172 = SECURITY_CLASSIFICATION ( '', '', #224 ) ;
#173 = EDGE_CURVE ( 'NONE', #105, #105, #153, .T. ) ;
#174 = ORIENTED_EDGE ( 'NONE', *, *, #119, .F. ) ;
#175 = APPROVAL_STATUS ( 'not_yet_approved' ) ;
#176 = EDGE_LOOP ( 'NONE', ( #26 ) ) ;
#177 = ORGANIZATION ( 'UNSPECIFIED', 'UNSPECIFIED', '' ) ;
#178 = APPROVAL ( #175, 'UNSPECIFIED' ) ;
#179 = FACE_OUTER_BOUND ( 'NONE', #55, .T. ) ;
#180 = CARTESIAN_POINT ( 'NONE',  ( 2.793185071074506684E-13, -9.797174393178826052E-15, 80.00000000000000000 ) ) ;
#181 = DIRECTION ( 'NONE',  ( -4.275831445896958607E-31, -1.000000000000000000, -1.224646799147353207E-16 ) ) ;
#182 = CC_DESIGN_DATE_AND_TIME_ASSIGNMENT ( #32, #168, ( #98 ) ) ;
#183 = CIRCLE ( 'NONE', #91, 2.360000000000019860 ) ;
#184 = APPLICATION_PROTOCOL_DEFINITION ( 'international standard', 'config_control_design', 1994, #192 ) ;
#185 =( NAMED_UNIT ( * ) PLANE_ANGLE_UNIT ( ) SI_UNIT ( $, .RADIAN. ) );
#186 = CALENDAR_DATE ( 2021, 2, 12 ) ;
#187 = CARTESIAN_POINT ( 'NONE',  ( 0.0000000000000000000, 0.0000000000000000000, 0.0000000000000000000 ) ) ;
#188 = APPROVAL_STATUS ( 'not_yet_approved' ) ;
#189 = AXIS2_PLACEMENT_3D ( 'NONE', #50, #223, #66 ) ;
#190 = EDGE_LOOP ( 'NONE', ( #21 ) ) ;
#191 = CARTESIAN_POINT ( 'NONE',  ( 4.189777606611760026E-14, 1.769716543541005169E-32, 12.00000000000000000 ) ) ;
#192 = APPLICATION_CONTEXT ( 'configuration controlled 3d designs of mechanical parts and assemblies' ) ;
#193 = PLANE ( 'NONE',  #171 ) ;
#194 = DIRECTION ( 'NONE',  ( 4.275831445896958607E-31, 1.000000000000000000, 1.224646799147353207E-16 ) ) ;
#195 = DIRECTION ( 'NONE',  ( 0.0000000000000000000, 1.000000000000000000, 0.0000000000000000000 ) ) ;
#196 = ORIENTED_EDGE ( 'NONE', *, *, #213, .F. ) ;
#197 = PERSON_AND_ORGANIZATION ( #202, #177 ) ;
#198 = CIRCLE ( 'NONE', #210, 2.360000000000019860 ) ;
#199 = DIRECTION ( 'NONE',  ( 0.0000000000000000000, 1.000000000000000000, 0.0000000000000000000 ) ) ;
#200 = APPROVAL_PERSON_ORGANIZATION ( #107, #103, #89 ) ;
#201 = CALENDAR_DATE ( 2021, 2, 12 ) ;
#202 = PERSON ( 'UNSPECIFIED', 'UNSPECIFIED', 'UNSPECIFIED', ('UNSPECIFIED'), ('UNSPECIFIED'), ('UNSPECIFIED') ) ;
#203 = ORIENTED_EDGE ( 'NONE', *, *, #151, .F. ) ;
#204 =( GEOMETRIC_REPRESENTATION_CONTEXT ( 3 ) GLOBAL_UNCERTAINTY_ASSIGNED_CONTEXT ( ( #154 ) ) GLOBAL_UNIT_ASSIGNED_CONTEXT ( ( #238, #185, #30 ) ) REPRESENTATION_CONTEXT ( 'NONE', 'WORKASPACE' ) );
#205 = DIRECTION ( 'NONE',  ( -3.491481338843133355E-15, 1.224646799147353207E-16, -1.000000000000000000 ) ) ;
#206 = APPROVAL_DATE_TIME ( #1, #178 ) ;
#207 = EDGE_LOOP ( 'NONE', ( #174 ) ) ;
#208 = ORIENTED_EDGE ( 'NONE', *, *, #119, .T. ) ;
#209 = CARTESIAN_POINT ( 'NONE',  ( 4.189777606611760026E-14, -1.469576158976823947E-15, 12.00000000000000000 ) ) ;
#210 = AXIS2_PLACEMENT_3D ( 'NONE', #233, #62, #134 ) ;
#211 = APPROVAL_ROLE ( '' ) ;
#212 = APPROVAL_PERSON_ORGANIZATION ( #44, #178, #211 ) ;
#213 = EDGE_CURVE ( 'NONE', #165, #165, #145, .T. ) ;
#214 = DIRECTION ( 'NONE',  ( 3.491481338843133355E-15, -1.224646799147353207E-16, 1.000000000000000000 ) ) ;
#215 = APPLICATION_PROTOCOL_DEFINITION ( 'international standard', 'config_control_design', 1994, #36 ) ;
#216 = PERSON_AND_ORGANIZATION_ROLE ( 'design_supplier' ) ;
#217 = MANIFOLD_SOLID_BREP ( 'Corps-Déplacer/Copier1[1]', #47 ) ;
#218 = DIRECTION ( 'NONE',  ( -3.491481338843133355E-15, 1.224646799147353207E-16, -1.000000000000000000 ) ) ;
#219 = DATE_AND_TIME ( #186, #124 ) ;
#220 = AXIS2_PLACEMENT_3D ( 'NONE', #7, #229, #58 ) ;
#221 = CARTESIAN_POINT ( 'NONE',  ( 4.407484837223753591E-14, -1.545937576165022990E-15, 12.62353829072484324 ) ) ;
#222 = VERTEX_POINT ( 'NONE', #137 ) ;
#223 = DIRECTION ( 'NONE',  ( -3.491481338843133355E-15, 1.224646799147353207E-16, -1.000000000000000000 ) ) ;
#224 = SECURITY_CLASSIFICATION_LEVEL ( 'unclassified' ) ;
#225 = ADVANCED_FACE ( 'NONE', ( #71 ), #85, .F. ) ;
#226 = CALENDAR_DATE ( 2021, 2, 12 ) ;
#227 = CC_DESIGN_APPROVAL ( #178, ( #172 ) ) ;
#228 = ORIENTED_EDGE ( 'NONE', *, *, #167, .T. ) ;
#229 = DIRECTION ( 'NONE',  ( -3.491481338843133355E-15, 1.224646799147353207E-16, -1.000000000000000000 ) ) ;
#230 = CIRCLE ( 'NONE', #220, 2.000000000000000888 ) ;
#231 = FACE_OUTER_BOUND ( 'NONE', #24, .T. ) ;
#232 = CYLINDRICAL_SURFACE ( 'NONE', #114, 1.999999999999996669 ) ;
#233 = CARTESIAN_POINT ( 'NONE',  ( 1.396592535537253145E-15, -4.898587196589411843E-17, 0.3999999999999999112 ) ) ;
#234 = FACE_OUTER_BOUND ( 'NONE', #130, .T. ) ;
#235 = CARTESIAN_POINT ( 'NONE',  ( 4.189777606611760026E-14, 2.360000000000018971, 12.00000000000000000 ) ) ;
#236 = CARTESIAN_POINT ( 'NONE',  ( 2.779219145719134403E-13, 1.999999999999991340, 79.60000000000000853 ) ) ;
#237 = APPROVAL_DATE_TIME ( #219, #103 ) ;
#238 =( LENGTH_UNIT ( ) NAMED_UNIT ( * ) SI_UNIT ( .MILLI., .METRE. ) );
#239 = PERSON_AND_ORGANIZATION ( #202, #177 ) ;
#240 = PERSON_AND_ORGANIZATION_ROLE ( 'creator' ) ;
#241 = AXIS2_PLACEMENT_3D ( 'NONE', #110, #60, #113 ) ;
#242 = CALENDAR_DATE ( 2021, 2, 12 ) ;
#243 = ORIENTED_EDGE ( 'NONE', *, *, #173, .F. ) ;
ENDSEC;
END-ISO-10303-21;
