ISO-10303-21;
HEADER;
FILE_DESCRIPTION (( 'STEP AP203' ),
    '1' );
FILE_NAME ('321697.step',
    '2021-12-02T12:56:38',
    ( '' ),
    ( '' ),
    'SwSTEP 2.0',
    'SolidWorks 2019',
    '' );
FILE_SCHEMA (( 'CONFIG_CONTROL_DESIGN' ));
ENDSEC;

DATA;
#1 = CARTESIAN_POINT ( 'NONE',  ( 4.189777606611760026E-14, 1.765967144084350498E-32, 12.00000000000000000 ) ) ;
#2 = DIRECTION ( 'NONE',  ( -4.275831445896958607E-31, -1.000000000000000000, -1.224646799147353207E-16 ) ) ;
#3 = CC_DESIGN_PERSON_AND_ORGANIZATION_ASSIGNMENT ( #115, #191, ( #239 ) ) ;
#4 = DIRECTION ( 'NONE',  ( 0.0000000000000000000, 1.000000000000000000, 0.0000000000000000000 ) ) ;
#5 = VERTEX_POINT ( 'NONE', #26 ) ;
#6 = LOCAL_TIME ( 13, 56, 38.00000000000000000, #162 ) ;
#7 = PERSON_AND_ORGANIZATION ( #107, #34 ) ;
#8 = ORIENTED_EDGE ( 'NONE', *, *, #88, .T. ) ;
#9 = CARTESIAN_POINT ( 'NONE',  ( 2.793185071074506684E-13, 1.599999999999991207, 80.00000000000000000 ) ) ;
#10 = AXIS2_PLACEMENT_3D ( 'NONE', #139, #182, #221 ) ;
#11 = CARTESIAN_POINT ( 'NONE',  ( 2.779219145719134403E-13, 1.999999999999991340, 79.60000000000000853 ) ) ;
#12 = ORIENTED_EDGE ( 'NONE', *, *, #207, .F. ) ;
#13 = ADVANCED_FACE ( 'NONE', ( #41, #19 ), #234, .T. ) ;
#14 = EDGE_CURVE ( 'NONE', #5, #5, #63, .T. ) ;
#15 = DATE_TIME_ROLE ( 'classification_date' ) ;
#16 = ADVANCED_FACE ( 'NONE', ( #134, #155 ), #100, .T. ) ;
#17 = CONICAL_SURFACE ( 'NONE', #73, 2.355000000000019966, 0.5235987755982995928 ) ;
#18 = EDGE_LOOP ( 'NONE', ( #216 ) ) ;
#19 = FACE_BOUND ( 'NONE', #212, .T. ) ;
#20 = DIRECTION ( 'NONE',  ( 4.275831445896958607E-31, 1.000000000000000000, 1.224646799147353207E-16 ) ) ;
#21 = DIRECTION ( 'NONE',  ( -3.491481338843133355E-15, 1.224646799147353207E-16, -1.000000000000000000 ) ) ;
#22 = FACE_OUTER_BOUND ( 'NONE', #102, .T. ) ;
#23 = DIRECTION ( 'NONE',  ( 0.0000000000000000000, 1.000000000000000000, 0.0000000000000000000 ) ) ;
#24 = AXIS2_PLACEMENT_3D ( 'NONE', #65, #21, #150 ) ;
#25 = CYLINDRICAL_SURFACE ( 'NONE', #122, 2.355000000000020410 ) ;
#26 = CARTESIAN_POINT ( 'NONE',  ( 4.189777606611760026E-14, 2.355000000000018634, 12.00000000000000000 ) ) ;
#27 = AXIS2_PLACEMENT_3D ( 'NONE', #243, #137, #172 ) ;
#28 = EDGE_LOOP ( 'NONE', ( #119 ) ) ;
#29 = PERSON_AND_ORGANIZATION_ROLE ( 'design_owner' ) ;
#30 = PERSON_AND_ORGANIZATION ( #107, #34 ) ;
#31 = CARTESIAN_POINT ( 'NONE',  ( 4.404461125687476086E-14, 1.999999999999990452, 12.61487803668699925 ) ) ;
#32 = CC_DESIGN_PERSON_AND_ORGANIZATION_ASSIGNMENT ( #57, #141, ( #124 ) ) ;
#33 = ORIENTED_EDGE ( 'NONE', *, *, #178, .T. ) ;
#34 = ORGANIZATION ( 'UNSPECIFIED', 'UNSPECIFIED', '' ) ;
#35 = APPROVAL_ROLE ( '' ) ;
#36 = AXIS2_PLACEMENT_3D ( 'NONE', #66, #159, #227 ) ;
#37 = ORIENTED_EDGE ( 'NONE', *, *, #131, .F. ) ;
#38 = ADVANCED_FACE ( 'NONE', ( #205 ), #187, .T. ) ;
#39 = AXIS2_PLACEMENT_3D ( 'NONE', #200, #85, #43 ) ;
#40 = LOCAL_TIME ( 13, 56, 38.00000000000000000, #161 ) ;
#41 = FACE_OUTER_BOUND ( 'NONE', #62, .T. ) ;
#42 = UNCERTAINTY_MEASURE_WITH_UNIT (LENGTH_MEASURE( 1.000000000000000082E-05 ), #54, 'distance_accuracy_value', 'NONE');
#43 = DIRECTION ( 'NONE',  ( 4.275831445896958607E-31, 1.000000000000000000, 1.224646799147353207E-16 ) ) ;
#44 = CARTESIAN_POINT ( 'NONE',  ( 0.0000000000000000000, 0.0000000000000000000, 0.0000000000000000000 ) ) ;
#45 = FACE_OUTER_BOUND ( 'NONE', #18, .T. ) ;
#46 = CLOSED_SHELL ( 'NONE', ( #236, #55, #38, #13 ) ) ;
#47 = PLANE ( 'NONE',  #36 ) ;
#48 =( NAMED_UNIT ( * ) SI_UNIT ( $, .STERADIAN. ) SOLID_ANGLE_UNIT ( ) );
#49 = EDGE_LOOP ( 'NONE', ( #33 ) ) ;
#50 = VERTEX_POINT ( 'NONE', #127 ) ;
#51 = LOCAL_TIME ( 13, 56, 38.00000000000000000, #80 ) ;
#52 =( NAMED_UNIT ( * ) PLANE_ANGLE_UNIT ( ) SI_UNIT ( $, .RADIAN. ) );
#53 = DESIGN_CONTEXT ( 'detailed design', #167, 'design' ) ;
#54 =( LENGTH_UNIT ( ) NAMED_UNIT ( * ) SI_UNIT ( .MILLI., .METRE. ) );
#55 = ADVANCED_FACE ( 'NONE', ( #104 ), #106, .T. ) ;
#56 = APPLICATION_CONTEXT ( 'configuration controlled 3d designs of mechanical parts and assemblies' ) ;
#57 = PERSON_AND_ORGANIZATION ( #107, #34 ) ;
#58 = ORIENTED_EDGE ( 'NONE', *, *, #131, .T. ) ;
#59 = AXIS2_PLACEMENT_3D ( 'NONE', #44, #184, #183 ) ;
#60 = CALENDAR_DATE ( 2021, 2, 12 ) ;
#61 = ADVANCED_FACE ( 'NONE', ( #22 ), #86, .F. ) ;
#62 = EDGE_LOOP ( 'NONE', ( #8 ) ) ;
#63 = CIRCLE ( 'NONE', #24, 2.355000000000019966 ) ;
#64 = LOCAL_TIME ( 13, 56, 38.00000000000000000, #152 ) ;
#65 = CARTESIAN_POINT ( 'NONE',  ( 4.189777606611760026E-14, -1.469576158976823947E-15, 12.00000000000000000 ) ) ;
#66 = CARTESIAN_POINT ( 'NONE',  ( 2.793185071074506684E-13, 1.199807826129472128E-32, 80.00000000000000000 ) ) ;
#67 = DIRECTION ( 'NONE',  ( -3.491481338843133355E-15, 1.224646799147353207E-16, -1.000000000000000000 ) ) ;
#68 = DIRECTION ( 'NONE',  ( -3.491481338843133355E-15, 1.224646799147353207E-16, -1.000000000000000000 ) ) ;
#69 = DIRECTION ( 'NONE',  ( 4.275831445896957731E-31, 1.000000000000000000, 1.224646799147353207E-16 ) ) ;
#70 = FACE_OUTER_BOUND ( 'NONE', #198, .T. ) ;
#71 = APPROVAL_STATUS ( 'not_yet_approved' ) ;
#72 = APPLICATION_PROTOCOL_DEFINITION ( 'international standard', 'config_control_design', 1994, #167 ) ;
#73 = AXIS2_PLACEMENT_3D ( 'NONE', #157, #175, #222 ) ;
#74 = EDGE_LOOP ( 'NONE', ( #241 ) ) ;
#75 = VERTEX_POINT ( 'NONE', #31 ) ;
#76 = CIRCLE ( 'NONE', #149, 2.355000000000020410 ) ;
#77 = LOCAL_TIME ( 13, 56, 38.00000000000000000, #209 ) ;
#78 = AXIS2_PLACEMENT_3D ( 'NONE', #87, #156, #121 ) ;
#79 = APPROVAL ( #71, 'UNSPECIFIED' ) ;
#80 = COORDINATED_UNIVERSAL_TIME_OFFSET ( 1, 0, .AHEAD. ) ;
#81 = EDGE_LOOP ( 'NONE', ( #58 ) ) ;
#82 = DIRECTION ( 'NONE',  ( -4.275831445896958607E-31, -1.000000000000000000, -1.224646799147353207E-16 ) ) ;
#83 = DIRECTION ( 'NONE',  ( 4.089023236490911517E-31, 1.000000000000000000, 1.150957720260610541E-16 ) ) ;
#84 = ADVANCED_BREP_SHAPE_REPRESENTATION ( '321697', ( #126, #193, #240 ), #204 ) ;
#85 = DIRECTION ( 'NONE',  ( -3.491481338843133355E-15, 1.224646799147353207E-16, -1.000000000000000000 ) ) ;
#86 = PLANE ( 'NONE',  #226 ) ;
#87 = CARTESIAN_POINT ( 'NONE',  ( 4.404461125687476086E-14, -1.544877000926297946E-15, 12.61487803668699925 ) ) ;
#88 = EDGE_CURVE ( 'NONE', #108, #108, #76, .T. ) ;
#89 = APPROVAL_PERSON_ORGANIZATION ( #177, #206, #35 ) ;
#90 = CARTESIAN_POINT ( 'NONE',  ( 0.0000000000000000000, 0.0000000000000000000, 0.0000000000000000000 ) ) ;
#91 = CARTESIAN_POINT ( 'NONE',  ( 4.189777606611760026E-14, 2.355000000000018634, 12.00000000000000000 ) ) ;
#92 = EDGE_LOOP ( 'NONE', ( #12 ) ) ;
#93 = CARTESIAN_POINT ( 'NONE',  ( 0.0000000000000000000, 0.0000000000000000000, 0.0000000000000000000 ) ) ;
#94 = MECHANICAL_CONTEXT ( 'NONE', #56, 'mechanical' ) ;
#95 = APPROVAL_ROLE ( '' ) ;
#96 = PERSON_AND_ORGANIZATION ( #107, #34 ) ;
#97 = ORIENTED_EDGE ( 'NONE', *, *, #144, .T. ) ;
#98 = APPROVAL_ROLE ( '' ) ;
#99 = CC_DESIGN_PERSON_AND_ORGANIZATION_ASSIGNMENT ( #7, #29, ( #223 ) ) ;
#100 = CONICAL_SURFACE ( 'NONE', #10, 1.600000000000000977, 0.7853981633974512766 ) ;
#101 = APPROVAL_DATE_TIME ( #132, #146 ) ;
#102 = EDGE_LOOP ( 'NONE', ( #218 ) ) ;
#103 = CARTESIAN_POINT ( 'NONE',  ( -8.359250476728631857E-31, 2.932030375103959047E-32, -2.394184492333097706E-16 ) ) ;
#104 = FACE_OUTER_BOUND ( 'NONE', #217, .T. ) ;
#105 = CARTESIAN_POINT ( 'NONE',  ( 2.779219145719134403E-13, -9.748188521212932624E-15, 79.60000000000000853 ) ) ;
#106 = PLANE ( 'NONE',  #27 ) ;
#107 = PERSON ( 'UNSPECIFIED', 'UNSPECIFIED', 'UNSPECIFIED', ('UNSPECIFIED'), ('UNSPECIFIED'), ('UNSPECIFIED') ) ;
#108 = VERTEX_POINT ( 'NONE', #138 ) ;
#109 = PRODUCT_RELATED_PRODUCT_CATEGORY ( 'detail', '', ( #223 ) ) ;
#110 = CARTESIAN_POINT ( 'NONE',  ( 4.189777606611760026E-14, -1.469576158976823947E-15, 12.00000000000000000 ) ) ;
#111 = EDGE_LOOP ( 'NONE', ( #37 ) ) ;
#112 = DATE_TIME_ROLE ( 'creation_date' ) ;
#113 = PERSON_AND_ORGANIZATION_ROLE ( 'design_supplier' ) ;
#114 = DATE_AND_TIME ( #129, #6 ) ;
#115 = PERSON_AND_ORGANIZATION ( #107, #34 ) ;
#116 = APPROVAL_PERSON_ORGANIZATION ( #160, #79, #95 ) ;
#117 = APPROVAL_PERSON_ORGANIZATION ( #194, #146, #98 ) ;
#118 = CARTESIAN_POINT ( 'NONE',  ( -4.179625238364315928E-31, 1.466015187551979524E-32, -1.197092246166548853E-16 ) ) ;
#119 = ORIENTED_EDGE ( 'NONE', *, *, #178, .F. ) ;
#120 = CYLINDRICAL_SURFACE ( 'NONE', #59, 1.999999999999996669 ) ;
#121 = DIRECTION ( 'NONE',  ( 0.0000000000000000000, 1.000000000000000000, 0.0000000000000000000 ) ) ;
#122 = AXIS2_PLACEMENT_3D ( 'NONE', #90, #188, #69 ) ;
#123 = CARTESIAN_POINT ( 'NONE',  ( 1.396592535537252356E-15, -4.898587196589408761E-17, 0.3999999999999996891 ) ) ;
#124 = PRODUCT_DEFINITION ( 'UNKNOWN', '', #239, #53 ) ;
#125 = DIRECTION ( 'NONE',  ( -3.491481338843133355E-15, 1.224646799147353207E-16, -1.000000000000000000 ) ) ;
#126 = MANIFOLD_SOLID_BREP ( 'Corps-Déplacer/Copier1[1]', #166 ) ;
#127 = CARTESIAN_POINT ( 'NONE',  ( 0.0000000000000000000, 1.955000000000018279, 0.0000000000000000000 ) ) ;
#128 = SECURITY_CLASSIFICATION ( '', '', #210 ) ;
#129 = CALENDAR_DATE ( 2021, 2, 12 ) ;
#130 = VERTEX_POINT ( 'NONE', #9 ) ;
#131 = EDGE_CURVE ( 'NONE', #75, #75, #143, .T. ) ;
#132 = DATE_AND_TIME ( #168, #51 ) ;
#133 = AXIS2_PLACEMENT_3D ( 'NONE', #203, #67, #136 ) ;
#134 = FACE_OUTER_BOUND ( 'NONE', #92, .T. ) ;
#135 = ADVANCED_FACE ( 'NONE', ( #219 ), #47, .F. ) ;
#136 = DIRECTION ( 'NONE',  ( 0.0000000000000000000, 1.000000000000000000, 0.0000000000000000000 ) ) ;
#137 = DIRECTION ( 'NONE',  ( 3.491481338843133355E-15, -1.224646799147353207E-16, 1.000000000000000000 ) ) ;
#138 = CARTESIAN_POINT ( 'NONE',  ( 1.396592535537253342E-15, 2.355000000000020410, 0.3999999999999999667 ) ) ;
#139 = CARTESIAN_POINT ( 'NONE',  ( 2.793185071074506684E-13, -9.797174393178826052E-15, 80.00000000000000000 ) ) ;
#140 = ORIENTED_EDGE ( 'NONE', *, *, #144, .F. ) ;
#141 = PERSON_AND_ORGANIZATION_ROLE ( 'creator' ) ;
#142 = APPROVAL_DATE_TIME ( #229, #206 ) ;
#143 = CIRCLE ( 'NONE', #78, 1.999999999999992228 ) ;
#144 = EDGE_CURVE ( 'NONE', #50, #50, #199, .T. ) ;
#145 = APPROVAL_DATE_TIME ( #114, #79 ) ;
#146 = APPROVAL ( #237, 'UNSPECIFIED' ) ;
#147 = PRODUCT_DEFINITION_SHAPE ( 'NONE', 'NONE',  #124 ) ;
#148 = EDGE_LOOP ( 'NONE', ( #97 ) ) ;
#149 = AXIS2_PLACEMENT_3D ( 'NONE', #123, #125, #83 ) ;
#150 = DIRECTION ( 'NONE',  ( 0.0000000000000000000, 1.000000000000000000, 0.0000000000000000000 ) ) ;
#151 = ADVANCED_FACE ( 'NONE', ( #202, #176 ), #17, .T. ) ;
#152 = COORDINATED_UNIVERSAL_TIME_OFFSET ( 1, 0, .AHEAD. ) ;
#153 = ORIENTED_EDGE ( 'NONE', *, *, #207, .T. ) ;
#154 = DIRECTION ( 'NONE',  ( 3.491481338843133355E-15, -1.224646799147353207E-16, 1.000000000000000000 ) ) ;
#155 = FACE_BOUND ( 'NONE', #49, .T. ) ;
#156 = DIRECTION ( 'NONE',  ( -3.491481338843133355E-15, 1.224646799147353207E-16, -1.000000000000000000 ) ) ;
#157 = CARTESIAN_POINT ( 'NONE',  ( 4.189777606611760026E-14, -1.469576158976823947E-15, 12.00000000000000000 ) ) ;
#158 = CIRCLE ( 'NONE', #185, 2.000000000000000888 ) ;
#159 = DIRECTION ( 'NONE',  ( -3.491481338843133355E-15, 1.224646799147353207E-16, -1.000000000000000000 ) ) ;
#160 = PERSON_AND_ORGANIZATION ( #107, #34 ) ;
#161 = COORDINATED_UNIVERSAL_TIME_OFFSET ( 1, 0, .AHEAD. ) ;
#162 = COORDINATED_UNIVERSAL_TIME_OFFSET ( 1, 0, .AHEAD. ) ;
#163 = EDGE_CURVE ( 'NONE', #165, #165, #215, .T. ) ;
#164 = DATE_AND_TIME ( #190, #77 ) ;
#165 = VERTEX_POINT ( 'NONE', #91 ) ;
#166 = CLOSED_SHELL ( 'NONE', ( #61, #151, #201, #16, #135 ) ) ;
#167 = APPLICATION_CONTEXT ( 'configuration controlled 3d designs of mechanical parts and assemblies' ) ;
#168 = CALENDAR_DATE ( 2021, 2, 12 ) ;
#169 = AXIS2_PLACEMENT_3D ( 'NONE', #118, #171, #20 ) ;
#170 = CC_DESIGN_DATE_AND_TIME_ASSIGNMENT ( #238, #15, ( #128 ) ) ;
#171 = DIRECTION ( 'NONE',  ( -3.491481338843133355E-15, 1.224646799147353207E-16, -1.000000000000000000 ) ) ;
#172 = DIRECTION ( 'NONE',  ( -4.275831445896958607E-31, -1.000000000000000000, -1.224646799147353207E-16 ) ) ;
#173 = CC_DESIGN_APPROVAL ( #79, ( #124 ) ) ;
#174 = FACE_OUTER_BOUND ( 'NONE', #232, .T. ) ;
#175 = DIRECTION ( 'NONE',  ( -3.491481338843133355E-15, 1.224646799147353207E-16, -1.000000000000000000 ) ) ;
#176 = FACE_OUTER_BOUND ( 'NONE', #74, .T. ) ;
#177 = PERSON_AND_ORGANIZATION ( #107, #34 ) ;
#178 = EDGE_CURVE ( 'NONE', #130, #130, #230, .T. ) ;
#179 = CC_DESIGN_APPROVAL ( #146, ( #128 ) ) ;
#180 = CC_DESIGN_PERSON_AND_ORGANIZATION_ASSIGNMENT ( #30, #211, ( #128 ) ) ;
#181 = AXIS2_PLACEMENT_3D ( 'NONE', #103, #242, #82 ) ;
#182 = DIRECTION ( 'NONE',  ( -3.491481338843133355E-15, 1.224646799147353207E-16, -1.000000000000000000 ) ) ;
#183 = DIRECTION ( 'NONE',  ( 4.275831445896958607E-31, 1.000000000000000000, 1.224646799147353207E-16 ) ) ;
#184 = DIRECTION ( 'NONE',  ( -3.491481338843133355E-15, 1.224646799147353207E-16, -1.000000000000000000 ) ) ;
#185 = AXIS2_PLACEMENT_3D ( 'NONE', #105, #68, #23 ) ;
#186 = CC_DESIGN_SECURITY_CLASSIFICATION ( #128, ( #239 ) ) ;
#187 = PLANE ( 'NONE',  #169 ) ;
#188 = DIRECTION ( 'NONE',  ( -3.491481338843133355E-15, 1.224646799147353207E-16, -1.000000000000000000 ) ) ;
#189 = APPLICATION_PROTOCOL_DEFINITION ( 'international standard', 'config_control_design', 1994, #56 ) ;
#190 = CALENDAR_DATE ( 2021, 2, 12 ) ;
#191 = PERSON_AND_ORGANIZATION_ROLE ( 'creator' ) ;
#192 = DIRECTION ( 'NONE',  ( 0.0000000000000000000, 0.0000000000000000000, 1.000000000000000000 ) ) ;
#193 = MANIFOLD_SOLID_BREP ( 'Corps-Déplacer/Copier1[2]', #46 ) ;
#194 = PERSON_AND_ORGANIZATION ( #107, #34 ) ;
#195 = AXIS2_PLACEMENT_3D ( 'NONE', #110, #208, #4 ) ;
#196 = CC_DESIGN_PERSON_AND_ORGANIZATION_ASSIGNMENT ( #96, #113, ( #239 ) ) ;
#197 = ORIENTED_EDGE ( 'NONE', *, *, #163, .F. ) ;
#198 = EDGE_LOOP ( 'NONE', ( #153 ) ) ;
#199 = CIRCLE ( 'NONE', #39, 1.955000000000018279 ) ;
#200 = CARTESIAN_POINT ( 'NONE',  ( -8.359250476728631857E-31, 2.932030375103959047E-32, -2.394184492333097706E-16 ) ) ;
#201 = ADVANCED_FACE ( 'NONE', ( #225, #70 ), #120, .T. ) ;
#202 = FACE_BOUND ( 'NONE', #81, .T. ) ;
#203 = CARTESIAN_POINT ( 'NONE',  ( 2.793185071074506684E-13, -9.797174393178826052E-15, 80.00000000000000000 ) ) ;
#204 =( GEOMETRIC_REPRESENTATION_CONTEXT ( 3 ) GLOBAL_UNCERTAINTY_ASSIGNED_CONTEXT ( ( #42 ) ) GLOBAL_UNIT_ASSIGNED_CONTEXT ( ( #54, #52, #48 ) ) REPRESENTATION_CONTEXT ( 'NONE', 'WORKASPACE' ) );
#205 = FACE_OUTER_BOUND ( 'NONE', #148, .T. ) ;
#206 = APPROVAL ( #213, 'UNSPECIFIED' ) ;
#207 = EDGE_CURVE ( 'NONE', #228, #228, #158, .T. ) ;
#208 = DIRECTION ( 'NONE',  ( -3.491481338843133355E-15, 1.224646799147353207E-16, -1.000000000000000000 ) ) ;
#209 = COORDINATED_UNIVERSAL_TIME_OFFSET ( 1, 0, .AHEAD. ) ;
#210 = SECURITY_CLASSIFICATION_LEVEL ( 'unclassified' ) ;
#211 = PERSON_AND_ORGANIZATION_ROLE ( 'classification_officer' ) ;
#212 = EDGE_LOOP ( 'NONE', ( #140 ) ) ;
#213 = APPROVAL_STATUS ( 'not_yet_approved' ) ;
#214 = ORIENTED_EDGE ( 'NONE', *, *, #163, .T. ) ;
#215 = CIRCLE ( 'NONE', #195, 2.355000000000019966 ) ;
#216 = ORIENTED_EDGE ( 'NONE', *, *, #88, .F. ) ;
#217 = EDGE_LOOP ( 'NONE', ( #197 ) ) ;
#218 = ORIENTED_EDGE ( 'NONE', *, *, #14, .T. ) ;
#219 = FACE_OUTER_BOUND ( 'NONE', #28, .T. ) ;
#220 = CC_DESIGN_APPROVAL ( #206, ( #239 ) ) ;
#221 = DIRECTION ( 'NONE',  ( 0.0000000000000000000, 1.000000000000000000, 0.0000000000000000000 ) ) ;
#222 = DIRECTION ( 'NONE',  ( 0.0000000000000000000, 1.000000000000000000, 0.0000000000000000000 ) ) ;
#223 = PRODUCT ( '321697', '321697', '', ( #94 ) ) ;
#224 = CC_DESIGN_DATE_AND_TIME_ASSIGNMENT ( #164, #112, ( #124 ) ) ;
#225 = FACE_OUTER_BOUND ( 'NONE', #111, .T. ) ;
#226 = AXIS2_PLACEMENT_3D ( 'NONE', #1, #154, #2 ) ;
#227 = DIRECTION ( 'NONE',  ( 4.275831445896958607E-31, 1.000000000000000000, 1.224646799147353207E-16 ) ) ;
#228 = VERTEX_POINT ( 'NONE', #11 ) ;
#229 = DATE_AND_TIME ( #231, #40 ) ;
#230 = CIRCLE ( 'NONE', #133, 1.600000000000000977 ) ;
#231 = CALENDAR_DATE ( 2021, 2, 12 ) ;
#232 = EDGE_LOOP ( 'NONE', ( #214 ) ) ;
#233 = DIRECTION ( 'NONE',  ( 1.000000000000000000, 0.0000000000000000000, 0.0000000000000000000 ) ) ;
#234 = CONICAL_SURFACE ( 'NONE', #181, 1.955000000000018279, 0.7853981633974508325 ) ;
#235 = SHAPE_DEFINITION_REPRESENTATION ( #147, #84 ) ;
#236 = ADVANCED_FACE ( 'NONE', ( #174, #45 ), #25, .T. ) ;
#237 = APPROVAL_STATUS ( 'not_yet_approved' ) ;
#238 = DATE_AND_TIME ( #60, #64 ) ;
#239 = PRODUCT_DEFINITION_FORMATION_WITH_SPECIFIED_SOURCE ( 'ANY', '', #223, .NOT_KNOWN. ) ;
#240 = AXIS2_PLACEMENT_3D ( 'NONE', #93, #192, #233 ) ;
#241 = ORIENTED_EDGE ( 'NONE', *, *, #14, .F. ) ;
#242 = DIRECTION ( 'NONE',  ( 3.491481338843133355E-15, -1.224646799147353207E-16, 1.000000000000000000 ) ) ;
#243 = CARTESIAN_POINT ( 'NONE',  ( 4.189777606611760026E-14, 1.765967144084350498E-32, 12.00000000000000000 ) ) ;
ENDSEC;
END-ISO-10303-21;
