ISO-10303-21;
HEADER;
FILE_DESCRIPTION (( 'STEP AP203' ),
    '1' );
FILE_NAME ('321696.step',
    '2021-12-02T12:56:37',
    ( '' ),
    ( '' ),
    'SwSTEP 2.0',
    'SolidWorks 2019',
    '' );
FILE_SCHEMA (( 'CONFIG_CONTROL_DESIGN' ));
ENDSEC;

DATA;
#1 = CC_DESIGN_APPROVAL ( #131, ( #22 ) ) ;
#2 = EDGE_LOOP ( 'NONE', ( #242 ) ) ;
#3 = AXIS2_PLACEMENT_3D ( 'NONE', #97, #172, #78 ) ;
#4 = PERSON_AND_ORGANIZATION ( #162, #178 ) ;
#5 = EDGE_CURVE ( 'NONE', #119, #119, #200, .T. ) ;
#6 = VERTEX_POINT ( 'NONE', #229 ) ;
#7 = VERTEX_POINT ( 'NONE', #87 ) ;
#8 = APPROVAL_ROLE ( '' ) ;
#9 = CARTESIAN_POINT ( 'NONE',  ( 4.189777606611760026E-14, -1.469576158976823947E-15, 12.00000000000000000 ) ) ;
#10 = CARTESIAN_POINT ( 'NONE',  ( -8.337871319499148894E-31, 2.924531576190650252E-32, -2.388061258337361816E-16 ) ) ;
#11 = APPLICATION_CONTEXT ( 'configuration controlled 3d designs of mechanical parts and assemblies' ) ;
#12 = DIRECTION ( 'NONE',  ( 4.275831445896958607E-31, 1.000000000000000000, 1.224646799147353207E-16 ) ) ;
#13 = CARTESIAN_POINT ( 'NONE',  ( 4.401437414151197951E-14, -1.543816425687572902E-15, 12.60621778264915349 ) ) ;
#14 = LOCAL_TIME ( 13, 56, 37.00000000000000000, #114 ) ;
#15 = EDGE_LOOP ( 'NONE', ( #219 ) ) ;
#16 = LOCAL_TIME ( 13, 56, 37.00000000000000000, #139 ) ;
#17 = CC_DESIGN_DATE_AND_TIME_ASSIGNMENT ( #39, #224, ( #22 ) ) ;
#18 = ORIENTED_EDGE ( 'NONE', *, *, #85, .T. ) ;
#19 = CARTESIAN_POINT ( 'NONE',  ( 0.0000000000000000000, 1.950000000000018829, 0.0000000000000000000 ) ) ;
#20 = DATE_AND_TIME ( #88, #16 ) ;
#21 = EDGE_LOOP ( 'NONE', ( #57 ) ) ;
#22 = PRODUCT_DEFINITION ( 'UNKNOWN', '', #106, #105 ) ;
#23 = DIRECTION ( 'NONE',  ( 4.275831445896958607E-31, 1.000000000000000000, 1.224646799147353207E-16 ) ) ;
#24 = APPROVAL_STATUS ( 'not_yet_approved' ) ;
#25 = CARTESIAN_POINT ( 'NONE',  ( 2.793185071074506684E-13, -9.797174393178826052E-15, 80.00000000000000000 ) ) ;
#26 = DIRECTION ( 'NONE',  ( -3.491481338843133355E-15, 1.224646799147353207E-16, -1.000000000000000000 ) ) ;
#27 = CALENDAR_DATE ( 2021, 2, 12 ) ;
#28 = CARTESIAN_POINT ( 'NONE',  ( 4.189777606611760026E-14, -1.469576158976823947E-15, 12.00000000000000000 ) ) ;
#29 = ADVANCED_FACE ( 'NONE', ( #64, #140 ), #210, .T. ) ;
#30 = AXIS2_PLACEMENT_3D ( 'NONE', #28, #103, #196 ) ;
#31 = PLANE ( 'NONE',  #74 ) ;
#32 = EDGE_LOOP ( 'NONE', ( #198 ) ) ;
#33 = CC_DESIGN_PERSON_AND_ORGANIZATION_ASSIGNMENT ( #170, #194, ( #106 ) ) ;
#34 = EDGE_LOOP ( 'NONE', ( #147 ) ) ;
#35 = ORIENTED_EDGE ( 'NONE', *, *, #85, .F. ) ;
#36 = ADVANCED_FACE ( 'NONE', ( #213, #41 ), #234, .T. ) ;
#37 = FACE_OUTER_BOUND ( 'NONE', #201, .T. ) ;
#38 = CIRCLE ( 'NONE', #182, 1.600000000000000977 ) ;
#39 = DATE_AND_TIME ( #185, #148 ) ;
#40 = PERSON_AND_ORGANIZATION_ROLE ( 'creator' ) ;
#41 = FACE_BOUND ( 'NONE', #67, .T. ) ;
#42 = DATE_AND_TIME ( #27, #14 ) ;
#43 = PRODUCT_DEFINITION_SHAPE ( 'NONE', 'NONE',  #22 ) ;
#44 = DIRECTION ( 'NONE',  ( -4.275831445896957731E-31, -1.000000000000000000, -1.224646799147353207E-16 ) ) ;
#45 = EDGE_CURVE ( 'NONE', #52, #52, #70, .T. ) ;
#46 = DIRECTION ( 'NONE',  ( 4.097723285930254464E-31, 1.000000000000000000, 1.153406566473931152E-16 ) ) ;
#47 = DIRECTION ( 'NONE',  ( 0.0000000000000000000, 1.000000000000000000, 0.0000000000000000000 ) ) ;
#48 = CC_DESIGN_APPROVAL ( #179, ( #106 ) ) ;
#49 = EDGE_LOOP ( 'NONE', ( #212 ) ) ;
#50 = UNCERTAINTY_MEASURE_WITH_UNIT (LENGTH_MEASURE( 1.000000000000000082E-05 ), #153, 'distance_accuracy_value', 'NONE');
#51 = EDGE_LOOP ( 'NONE', ( #222 ) ) ;
#52 = VERTEX_POINT ( 'NONE', #133 ) ;
#53 = APPROVAL_STATUS ( 'not_yet_approved' ) ;
#54 = AXIS2_PLACEMENT_3D ( 'NONE', #98, #235, #138 ) ;
#55 = CC_DESIGN_PERSON_AND_ORGANIZATION_ASSIGNMENT ( #230, #81, ( #106 ) ) ;
#56 = DIRECTION ( 'NONE',  ( -3.491481338843133355E-15, 1.224646799147353207E-16, -1.000000000000000000 ) ) ;
#57 = ORIENTED_EDGE ( 'NONE', *, *, #174, .F. ) ;
#58 = DIRECTION ( 'NONE',  ( 0.0000000000000000000, 0.0000000000000000000, 1.000000000000000000 ) ) ;
#59 = DATE_TIME_ROLE ( 'classification_date' ) ;
#60 = AXIS2_PLACEMENT_3D ( 'NONE', #95, #58, #204 ) ;
#61 = DIRECTION ( 'NONE',  ( 3.491481338843133355E-15, -1.224646799147353207E-16, 1.000000000000000000 ) ) ;
#62 = CC_DESIGN_PERSON_AND_ORGANIZATION_ASSIGNMENT ( #90, #132, ( #108 ) ) ;
#63 = FACE_BOUND ( 'NONE', #51, .T. ) ;
#64 = FACE_OUTER_BOUND ( 'NONE', #49, .T. ) ;
#65 = FACE_OUTER_BOUND ( 'NONE', #240, .T. ) ;
#66 = DIRECTION ( 'NONE',  ( -3.491481338843133355E-15, 1.224646799147353207E-16, -1.000000000000000000 ) ) ;
#67 = EDGE_LOOP ( 'NONE', ( #163 ) ) ;
#68 = CONICAL_SURFACE ( 'NONE', #228, 1.950000000000018829, 0.7853981633974498333 ) ;
#69 = ADVANCED_FACE ( 'NONE', ( #63, #188 ), #167, .T. ) ;
#70 = CIRCLE ( 'NONE', #207, 2.350000000000020073 ) ;
#71 = FACE_OUTER_BOUND ( 'NONE', #34, .T. ) ;
#72 =( NAMED_UNIT ( * ) SI_UNIT ( $, .STERADIAN. ) SOLID_ANGLE_UNIT ( ) );
#73 = APPROVAL_ROLE ( '' ) ;
#74 = AXIS2_PLACEMENT_3D ( 'NONE', #214, #104, #202 ) ;
#75 = APPROVAL_DATE_TIME ( #168, #131 ) ;
#76 = CARTESIAN_POINT ( 'NONE',  ( 2.779219145719134403E-13, -9.748188521212932624E-15, 79.60000000000000853 ) ) ;
#77 = EDGE_CURVE ( 'NONE', #7, #7, #89, .T. ) ;
#78 = DIRECTION ( 'NONE',  ( 4.275831445896957731E-31, 1.000000000000000000, 1.224646799147353207E-16 ) ) ;
#79 = AXIS2_PLACEMENT_3D ( 'NONE', #161, #208, #12 ) ;
#80 = DIRECTION ( 'NONE',  ( -3.491481338843133355E-15, 1.224646799147353207E-16, -1.000000000000000000 ) ) ;
#81 = PERSON_AND_ORGANIZATION_ROLE ( 'creator' ) ;
#82 = FACE_OUTER_BOUND ( 'NONE', #2, .T. ) ;
#83 = FACE_OUTER_BOUND ( 'NONE', #15, .T. ) ;
#84 = PRODUCT_RELATED_PRODUCT_CATEGORY ( 'detail', '', ( #108 ) ) ;
#85 = EDGE_CURVE ( 'NONE', #91, #91, #195, .T. ) ;
#86 = DATE_AND_TIME ( #206, #112 ) ;
#87 = CARTESIAN_POINT ( 'NONE',  ( 4.401437414151197951E-14, 1.999999999999990452, 12.60621778264915349 ) ) ;
#88 = CALENDAR_DATE ( 2021, 2, 12 ) ;
#89 = CIRCLE ( 'NONE', #157, 1.999999999999992228 ) ;
#90 = PERSON_AND_ORGANIZATION ( #162, #178 ) ;
#91 = VERTEX_POINT ( 'NONE', #135 ) ;
#92 = VERTEX_POINT ( 'NONE', #149 ) ;
#93 =( GEOMETRIC_REPRESENTATION_CONTEXT ( 3 ) GLOBAL_UNCERTAINTY_ASSIGNED_CONTEXT ( ( #50 ) ) GLOBAL_UNIT_ASSIGNED_CONTEXT ( ( #153, #205, #72 ) ) REPRESENTATION_CONTEXT ( 'NONE', 'WORKASPACE' ) );
#94 = CARTESIAN_POINT ( 'NONE',  ( 2.793185071074506684E-13, -9.797174393178826052E-15, 80.00000000000000000 ) ) ;
#95 = CARTESIAN_POINT ( 'NONE',  ( 0.0000000000000000000, 0.0000000000000000000, 0.0000000000000000000 ) ) ;
#96 = APPROVAL_DATE_TIME ( #86, #179 ) ;
#97 = CARTESIAN_POINT ( 'NONE',  ( -8.337871319499148894E-31, 2.924531576190650252E-32, -2.388061258337361816E-16 ) ) ;
#98 = CARTESIAN_POINT ( 'NONE',  ( 4.189777606611760026E-14, 1.762217744627695826E-32, 12.00000000000000000 ) ) ;
#99 = DIRECTION ( 'NONE',  ( 4.275831445896958607E-31, 1.000000000000000000, 1.224646799147353207E-16 ) ) ;
#100 = DIRECTION ( 'NONE',  ( -3.491481338843133355E-15, 1.224646799147353207E-16, -1.000000000000000000 ) ) ;
#101 = APPROVAL_DATE_TIME ( #42, #146 ) ;
#102 = AXIS2_PLACEMENT_3D ( 'NONE', #76, #26, #160 ) ;
#103 = DIRECTION ( 'NONE',  ( -3.491481338843133355E-15, 1.224646799147353207E-16, -1.000000000000000000 ) ) ;
#104 = DIRECTION ( 'NONE',  ( 3.491481338843133355E-15, -1.224646799147353207E-16, 1.000000000000000000 ) ) ;
#105 = DESIGN_CONTEXT ( 'detailed design', #11, 'design' ) ;
#106 = PRODUCT_DEFINITION_FORMATION_WITH_SPECIFIED_SOURCE ( 'ANY', '', #108, .NOT_KNOWN. ) ;
#107 = CLOSED_SHELL ( 'NONE', ( #29, #166, #126, #190 ) ) ;
#108 = PRODUCT ( '321696', '321696', '', ( #169 ) ) ;
#109 = EDGE_CURVE ( 'NONE', #92, #92, #38, .T. ) ;
#110 = MANIFOLD_SOLID_BREP ( 'Corps-Déplacer/Copier1[1]', #128 ) ;
#111 = EDGE_LOOP ( 'NONE', ( #35 ) ) ;
#112 = LOCAL_TIME ( 13, 56, 37.00000000000000000, #136 ) ;
#113 = ORIENTED_EDGE ( 'NONE', *, *, #45, .F. ) ;
#114 = COORDINATED_UNIVERSAL_TIME_OFFSET ( 1, 0, .AHEAD. ) ;
#115 = CYLINDRICAL_SURFACE ( 'NONE', #215, 1.999999999999996669 ) ;
#116 = CIRCLE ( 'NONE', #175, 2.350000000000020073 ) ;
#117 = PERSON_AND_ORGANIZATION ( #162, #178 ) ;
#118 = CALENDAR_DATE ( 2021, 2, 12 ) ;
#119 = VERTEX_POINT ( 'NONE', #19 ) ;
#120 = APPROVAL_ROLE ( '' ) ;
#121 = PLANE ( 'NONE',  #79 ) ;
#122 = CARTESIAN_POINT ( 'NONE',  ( 0.0000000000000000000, 0.0000000000000000000, 0.0000000000000000000 ) ) ;
#123 = DIRECTION ( 'NONE',  ( 0.0000000000000000000, 1.000000000000000000, 0.0000000000000000000 ) ) ;
#124 = PERSON_AND_ORGANIZATION_ROLE ( 'classification_officer' ) ;
#125 = DIRECTION ( 'NONE',  ( -3.491481338843133355E-15, 1.224646799147353207E-16, -1.000000000000000000 ) ) ;
#126 = ADVANCED_FACE ( 'NONE', ( #83 ), #121, .T. ) ;
#127 = CC_DESIGN_APPROVAL ( #146, ( #137 ) ) ;
#128 = CLOSED_SHELL ( 'NONE', ( #226, #69, #241, #36, #199 ) ) ;
#129 = ORIENTED_EDGE ( 'NONE', *, *, #159, .F. ) ;
#130 = VERTEX_POINT ( 'NONE', #227 ) ;
#131 = APPROVAL ( #53, 'UNSPECIFIED' ) ;
#132 = PERSON_AND_ORGANIZATION_ROLE ( 'design_owner' ) ;
#133 = CARTESIAN_POINT ( 'NONE',  ( 1.396592535537253737E-15, 2.350000000000020073, 0.4000000000000000777 ) ) ;
#134 = ORIENTED_EDGE ( 'NONE', *, *, #159, .T. ) ;
#135 = CARTESIAN_POINT ( 'NONE',  ( 4.189777606611760026E-14, 2.350000000000018741, 12.00000000000000000 ) ) ;
#136 = COORDINATED_UNIVERSAL_TIME_OFFSET ( 1, 0, .AHEAD. ) ;
#137 = SECURITY_CLASSIFICATION ( '', '', #223 ) ;
#138 = DIRECTION ( 'NONE',  ( -4.275831445896958607E-31, -1.000000000000000000, -1.224646799147353207E-16 ) ) ;
#139 = COORDINATED_UNIVERSAL_TIME_OFFSET ( 1, 0, .AHEAD. ) ;
#140 = FACE_OUTER_BOUND ( 'NONE', #181, .T. ) ;
#141 = DIRECTION ( 'NONE',  ( -3.491481338843133355E-15, 1.224646799147353207E-16, -1.000000000000000000 ) ) ;
#142 = CC_DESIGN_PERSON_AND_ORGANIZATION_ASSIGNMENT ( #232, #124, ( #137 ) ) ;
#143 = CARTESIAN_POINT ( 'NONE',  ( 1.396592535537252750E-15, -4.898587196589410610E-17, 0.3999999999999998002 ) ) ;
#144 = DIRECTION ( 'NONE',  ( 0.0000000000000000000, 1.000000000000000000, 0.0000000000000000000 ) ) ;
#145 = AXIS2_PLACEMENT_3D ( 'NONE', #122, #192, #99 ) ;
#146 = APPROVAL ( #189, 'UNSPECIFIED' ) ;
#147 = ORIENTED_EDGE ( 'NONE', *, *, #77, .F. ) ;
#148 = LOCAL_TIME ( 13, 56, 37.00000000000000000, #150 ) ;
#149 = CARTESIAN_POINT ( 'NONE',  ( 2.793185071074506684E-13, 1.599999999999991207, 80.00000000000000000 ) ) ;
#150 = COORDINATED_UNIVERSAL_TIME_OFFSET ( 1, 0, .AHEAD. ) ;
#151 = APPROVAL_PERSON_ORGANIZATION ( #117, #179, #73 ) ;
#152 = CARTESIAN_POINT ( 'NONE',  ( 0.0000000000000000000, 0.0000000000000000000, 0.0000000000000000000 ) ) ;
#153 =( LENGTH_UNIT ( ) NAMED_UNIT ( * ) SI_UNIT ( .MILLI., .METRE. ) );
#154 = APPLICATION_PROTOCOL_DEFINITION ( 'international standard', 'config_control_design', 1994, #11 ) ;
#155 = DIRECTION ( 'NONE',  ( 0.0000000000000000000, 1.000000000000000000, 0.0000000000000000000 ) ) ;
#156 = APPROVAL_PERSON_ORGANIZATION ( #184, #131, #120 ) ;
#157 = AXIS2_PLACEMENT_3D ( 'NONE', #13, #125, #144 ) ;
#158 = DIRECTION ( 'NONE',  ( 4.275831445896958607E-31, 1.000000000000000000, 1.224646799147353207E-16 ) ) ;
#159 = EDGE_CURVE ( 'NONE', #130, #130, #220, .T. ) ;
#160 = DIRECTION ( 'NONE',  ( 0.0000000000000000000, 1.000000000000000000, 0.0000000000000000000 ) ) ;
#161 = CARTESIAN_POINT ( 'NONE',  ( -4.168935659749574447E-31, 1.462265788095325126E-32, -1.194030629168680908E-16 ) ) ;
#162 = PERSON ( 'UNSPECIFIED', 'UNSPECIFIED', 'UNSPECIFIED', ('UNSPECIFIED'), ('UNSPECIFIED'), ('UNSPECIFIED') ) ;
#163 = ORIENTED_EDGE ( 'NONE', *, *, #109, .T. ) ;
#164 = PERSON_AND_ORGANIZATION ( #162, #178 ) ;
#165 = ORIENTED_EDGE ( 'NONE', *, *, #5, .F. ) ;
#166 = ADVANCED_FACE ( 'NONE', ( #193 ), #171, .T. ) ;
#167 = CONICAL_SURFACE ( 'NONE', #197, 2.350000000000020073, 0.5235987755983005920 ) ;
#168 = DATE_AND_TIME ( #118, #180 ) ;
#169 = MECHANICAL_CONTEXT ( 'NONE', #243, 'mechanical' ) ;
#170 = PERSON_AND_ORGANIZATION ( #162, #178 ) ;
#171 = PLANE ( 'NONE',  #54 ) ;
#172 = DIRECTION ( 'NONE',  ( -3.491481338843133355E-15, 1.224646799147353207E-16, -1.000000000000000000 ) ) ;
#173 = CARTESIAN_POINT ( 'NONE',  ( 4.189777606611760026E-14, -1.469576158976823947E-15, 12.00000000000000000 ) ) ;
#174 = EDGE_CURVE ( 'NONE', #6, #6, #116, .T. ) ;
#175 = AXIS2_PLACEMENT_3D ( 'NONE', #9, #100, #177 ) ;
#176 = PLANE ( 'NONE',  #203 ) ;
#177 = DIRECTION ( 'NONE',  ( 0.0000000000000000000, 1.000000000000000000, 0.0000000000000000000 ) ) ;
#178 = ORGANIZATION ( 'UNSPECIFIED', 'UNSPECIFIED', '' ) ;
#179 = APPROVAL ( #24, 'UNSPECIFIED' ) ;
#180 = LOCAL_TIME ( 13, 56, 37.00000000000000000, #231 ) ;
#181 = EDGE_LOOP ( 'NONE', ( #113 ) ) ;
#182 = AXIS2_PLACEMENT_3D ( 'NONE', #25, #236, #47 ) ;
#183 = MANIFOLD_SOLID_BREP ( 'Corps-Déplacer/Copier1[2]', #107 ) ;
#184 = PERSON_AND_ORGANIZATION ( #162, #178 ) ;
#185 = CALENDAR_DATE ( 2021, 2, 12 ) ;
#186 = APPLICATION_PROTOCOL_DEFINITION ( 'international standard', 'config_control_design', 1994, #243 ) ;
#187 = EDGE_LOOP ( 'NONE', ( #129 ) ) ;
#188 = FACE_OUTER_BOUND ( 'NONE', #111, .T. ) ;
#189 = APPROVAL_STATUS ( 'not_yet_approved' ) ;
#190 = ADVANCED_FACE ( 'NONE', ( #82, #233 ), #68, .T. ) ;
#191 = CARTESIAN_POINT ( 'NONE',  ( 2.793185071074506684E-13, 1.199807826129472128E-32, 80.00000000000000000 ) ) ;
#192 = DIRECTION ( 'NONE',  ( -3.491481338843133355E-15, 1.224646799147353207E-16, -1.000000000000000000 ) ) ;
#193 = FACE_OUTER_BOUND ( 'NONE', #21, .T. ) ;
#194 = PERSON_AND_ORGANIZATION_ROLE ( 'design_supplier' ) ;
#195 = CIRCLE ( 'NONE', #30, 2.350000000000020073 ) ;
#196 = DIRECTION ( 'NONE',  ( 0.0000000000000000000, 1.000000000000000000, 0.0000000000000000000 ) ) ;
#197 = AXIS2_PLACEMENT_3D ( 'NONE', #173, #141, #123 ) ;
#198 = ORIENTED_EDGE ( 'NONE', *, *, #109, .F. ) ;
#199 = ADVANCED_FACE ( 'NONE', ( #238 ), #176, .F. ) ;
#200 = CIRCLE ( 'NONE', #3, 1.950000000000018829 ) ;
#201 = EDGE_LOOP ( 'NONE', ( #134 ) ) ;
#202 = DIRECTION ( 'NONE',  ( -4.275831445896958607E-31, -1.000000000000000000, -1.224646799147353207E-16 ) ) ;
#203 = AXIS2_PLACEMENT_3D ( 'NONE', #191, #80, #158 ) ;
#204 = DIRECTION ( 'NONE',  ( 1.000000000000000000, 0.0000000000000000000, 0.0000000000000000000 ) ) ;
#205 =( NAMED_UNIT ( * ) PLANE_ANGLE_UNIT ( ) SI_UNIT ( $, .RADIAN. ) );
#206 = CALENDAR_DATE ( 2021, 2, 12 ) ;
#207 = AXIS2_PLACEMENT_3D ( 'NONE', #143, #66, #46 ) ;
#208 = DIRECTION ( 'NONE',  ( -3.491481338843133355E-15, 1.224646799147353207E-16, -1.000000000000000000 ) ) ;
#209 = SHAPE_DEFINITION_REPRESENTATION ( #43, #216 ) ;
#210 = CYLINDRICAL_SURFACE ( 'NONE', #145, 2.350000000000020073 ) ;
#211 = DIRECTION ( 'NONE',  ( -3.491481338843133355E-15, 1.224646799147353207E-16, -1.000000000000000000 ) ) ;
#212 = ORIENTED_EDGE ( 'NONE', *, *, #174, .T. ) ;
#213 = FACE_OUTER_BOUND ( 'NONE', #187, .T. ) ;
#214 = CARTESIAN_POINT ( 'NONE',  ( 4.189777606611760026E-14, 1.762217744627695826E-32, 12.00000000000000000 ) ) ;
#215 = AXIS2_PLACEMENT_3D ( 'NONE', #152, #56, #23 ) ;
#216 = ADVANCED_BREP_SHAPE_REPRESENTATION ( '321696', ( #110, #183, #60 ), #93 ) ;
#217 = APPROVAL_PERSON_ORGANIZATION ( #164, #146, #8 ) ;
#218 = CC_DESIGN_PERSON_AND_ORGANIZATION_ASSIGNMENT ( #4, #40, ( #22 ) ) ;
#219 = ORIENTED_EDGE ( 'NONE', *, *, #5, .T. ) ;
#220 = CIRCLE ( 'NONE', #102, 2.000000000000000888 ) ;
#221 = EDGE_LOOP ( 'NONE', ( #165 ) ) ;
#222 = ORIENTED_EDGE ( 'NONE', *, *, #77, .T. ) ;
#223 = SECURITY_CLASSIFICATION_LEVEL ( 'unclassified' ) ;
#224 = DATE_TIME_ROLE ( 'creation_date' ) ;
#225 = CC_DESIGN_SECURITY_CLASSIFICATION ( #137, ( #106 ) ) ;
#226 = ADVANCED_FACE ( 'NONE', ( #65 ), #31, .F. ) ;
#227 = CARTESIAN_POINT ( 'NONE',  ( 2.779219145719134403E-13, 1.999999999999991340, 79.60000000000000853 ) ) ;
#228 = AXIS2_PLACEMENT_3D ( 'NONE', #10, #61, #44 ) ;
#229 = CARTESIAN_POINT ( 'NONE',  ( 4.189777606611760026E-14, 2.350000000000018741, 12.00000000000000000 ) ) ;
#230 = PERSON_AND_ORGANIZATION ( #162, #178 ) ;
#231 = COORDINATED_UNIVERSAL_TIME_OFFSET ( 1, 0, .AHEAD. ) ;
#232 = PERSON_AND_ORGANIZATION ( #162, #178 ) ;
#233 = FACE_BOUND ( 'NONE', #221, .T. ) ;
#234 = CONICAL_SURFACE ( 'NONE', #239, 1.600000000000000977, 0.7853981633974512766 ) ;
#235 = DIRECTION ( 'NONE',  ( 3.491481338843133355E-15, -1.224646799147353207E-16, 1.000000000000000000 ) ) ;
#236 = DIRECTION ( 'NONE',  ( -3.491481338843133355E-15, 1.224646799147353207E-16, -1.000000000000000000 ) ) ;
#237 = CC_DESIGN_DATE_AND_TIME_ASSIGNMENT ( #20, #59, ( #137 ) ) ;
#238 = FACE_OUTER_BOUND ( 'NONE', #32, .T. ) ;
#239 = AXIS2_PLACEMENT_3D ( 'NONE', #94, #211, #155 ) ;
#240 = EDGE_LOOP ( 'NONE', ( #18 ) ) ;
#241 = ADVANCED_FACE ( 'NONE', ( #71, #37 ), #115, .T. ) ;
#242 = ORIENTED_EDGE ( 'NONE', *, *, #45, .T. ) ;
#243 = APPLICATION_CONTEXT ( 'configuration controlled 3d designs of mechanical parts and assemblies' ) ;
ENDSEC;
END-ISO-10303-21;
