ISO-10303-21;
HEADER;
FILE_DESCRIPTION (( 'STEP AP203' ),
    '1' );
FILE_NAME ('321695.step',
    '2021-12-02T12:56:36',
    ( '' ),
    ( '' ),
    'SwSTEP 2.0',
    'SolidWorks 2019',
    '' );
FILE_SCHEMA (( 'CONFIG_CONTROL_DESIGN' ));
ENDSEC;

DATA;
#1 = APPLICATION_PROTOCOL_DEFINITION ( 'international standard', 'config_control_design', 1994, #73 ) ;
#2 = EDGE_LOOP ( 'NONE', ( #90 ) ) ;
#3 = AXIS2_PLACEMENT_3D ( 'NONE', #221, #194, #117 ) ;
#4 = CC_DESIGN_DATE_AND_TIME_ASSIGNMENT ( #48, #183, ( #70 ) ) ;
#5 = EDGE_LOOP ( 'NONE', ( #53 ) ) ;
#6 = CC_DESIGN_APPROVAL ( #57, ( #70 ) ) ;
#7 = FACE_OUTER_BOUND ( 'NONE', #52, .T. ) ;
#8 = ADVANCED_BREP_SHAPE_REPRESENTATION ( '321695', ( #103, #184, #211 ), #125 ) ;
#9 = DIRECTION ( 'NONE',  ( -3.491481338843133355E-15, 1.224646799147353207E-16, -1.000000000000000000 ) ) ;
#10 = ADVANCED_FACE ( 'NONE', ( #54, #134 ), #72, .T. ) ;
#11 = DIRECTION ( 'NONE',  ( -3.491481338843133355E-15, 1.224646799147353207E-16, -1.000000000000000000 ) ) ;
#12 = DIRECTION ( 'NONE',  ( -3.491481338843133355E-15, 1.224646799147353207E-16, -1.000000000000000000 ) ) ;
#13 = ADVANCED_FACE ( 'NONE', ( #154 ), #234, .T. ) ;
#14 = CIRCLE ( 'NONE', #217, 2.345000000000020179 ) ;
#15 = CALENDAR_DATE ( 2021, 2, 12 ) ;
#16 = DESIGN_CONTEXT ( 'detailed design', #73, 'design' ) ;
#17 = CALENDAR_DATE ( 2021, 2, 12 ) ;
#18 = EDGE_CURVE ( 'NONE', #98, #98, #14, .T. ) ;
#19 = PERSON_AND_ORGANIZATION ( #242, #95 ) ;
#20 = ORIENTED_EDGE ( 'NONE', *, *, #75, .T. ) ;
#21 = ORIENTED_EDGE ( 'NONE', *, *, #187, .F. ) ;
#22 = EDGE_LOOP ( 'NONE', ( #89 ) ) ;
#23 = ORIENTED_EDGE ( 'NONE', *, *, #149, .T. ) ;
#24 = CLOSED_SHELL ( 'NONE', ( #123, #87, #139, #10, #133 ) ) ;
#25 = CARTESIAN_POINT ( 'NONE',  ( 2.779219145719134403E-13, -9.748188521212932624E-15, 79.60000000000000853 ) ) ;
#26 = DIRECTION ( 'NONE',  ( 0.0000000000000000000, 1.000000000000000000, 0.0000000000000000000 ) ) ;
#27 = DIRECTION ( 'NONE',  ( -3.491481338843133355E-15, 1.224646799147353207E-16, -1.000000000000000000 ) ) ;
#28 = FACE_OUTER_BOUND ( 'NONE', #112, .T. ) ;
#29 = CARTESIAN_POINT ( 'NONE',  ( 4.398413702614921078E-14, -1.542755850448848252E-15, 12.59755752861130951 ) ) ;
#30 = CARTESIAN_POINT ( 'NONE',  ( 0.0000000000000000000, 0.0000000000000000000, 0.0000000000000000000 ) ) ;
#31 = AXIS2_PLACEMENT_3D ( 'NONE', #94, #41, #93 ) ;
#32 = DATE_AND_TIME ( #33, #206 ) ;
#33 = CALENDAR_DATE ( 2021, 2, 12 ) ;
#34 = LOCAL_TIME ( 13, 56, 36.00000000000000000, #104 ) ;
#35 = EDGE_LOOP ( 'NONE', ( #20 ) ) ;
#36 = PERSON_AND_ORGANIZATION_ROLE ( 'classification_officer' ) ;
#37 = AXIS2_PLACEMENT_3D ( 'NONE', #235, #141, #220 ) ;
#38 = EDGE_LOOP ( 'NONE', ( #23 ) ) ;
#39 = DIRECTION ( 'NONE',  ( 0.0000000000000000000, 1.000000000000000000, 0.0000000000000000000 ) ) ;
#40 = AXIS2_PLACEMENT_3D ( 'NONE', #135, #77, #171 ) ;
#41 = DIRECTION ( 'NONE',  ( 3.491481338843133355E-15, -1.224646799147353207E-16, 1.000000000000000000 ) ) ;
#42 = CC_DESIGN_PERSON_AND_ORGANIZATION_ASSIGNMENT ( #226, #49, ( #146 ) ) ;
#43 = FACE_OUTER_BOUND ( 'NONE', #74, .T. ) ;
#44 = FACE_OUTER_BOUND ( 'NONE', #5, .T. ) ;
#45 = CARTESIAN_POINT ( 'NONE',  ( 4.189777606611760026E-14, 1.758468345171041429E-32, 12.00000000000000000 ) ) ;
#46 = AXIS2_PLACEMENT_3D ( 'NONE', #29, #114, #39 ) ;
#47 = VERTEX_POINT ( 'NONE', #121 ) ;
#48 = DATE_AND_TIME ( #71, #34 ) ;
#49 = PERSON_AND_ORGANIZATION_ROLE ( 'design_owner' ) ;
#50 = DATE_AND_TIME ( #17, #61 ) ;
#51 = APPROVAL_DATE_TIME ( #102, #57 ) ;
#52 = EDGE_LOOP ( 'NONE', ( #167 ) ) ;
#53 = ORIENTED_EDGE ( 'NONE', *, *, #155, .F. ) ;
#54 = FACE_OUTER_BOUND ( 'NONE', #109, .T. ) ;
#55 = AXIS2_PLACEMENT_3D ( 'NONE', #97, #9, #190 ) ;
#56 = FACE_OUTER_BOUND ( 'NONE', #2, .T. ) ;
#57 = APPROVAL ( #147, 'UNSPECIFIED' ) ;
#58 = DIRECTION ( 'NONE',  ( -4.275831445896958607E-31, -1.000000000000000000, -1.224646799147353207E-16 ) ) ;
#59 = AXIS2_PLACEMENT_3D ( 'NONE', #239, #115, #60 ) ;
#60 = DIRECTION ( 'NONE',  ( 4.275831445896958607E-31, 1.000000000000000000, 1.224646799147353207E-16 ) ) ;
#61 = LOCAL_TIME ( 13, 56, 36.00000000000000000, #108 ) ;
#62 = DIRECTION ( 'NONE',  ( 0.0000000000000000000, 0.0000000000000000000, 1.000000000000000000 ) ) ;
#63 = FACE_BOUND ( 'NONE', #188, .T. ) ;
#64 = CC_DESIGN_PERSON_AND_ORGANIZATION_ASSIGNMENT ( #164, #131, ( #170 ) ) ;
#65 = CARTESIAN_POINT ( 'NONE',  ( 1.396592535537252750E-15, -4.898587196589410610E-17, 0.3999999999999998002 ) ) ;
#66 = VERTEX_POINT ( 'NONE', #241 ) ;
#67 =( NAMED_UNIT ( * ) SI_UNIT ( $, .STERADIAN. ) SOLID_ANGLE_UNIT ( ) );
#68 = PERSON_AND_ORGANIZATION ( #242, #95 ) ;
#69 = DATE_AND_TIME ( #15, #176 ) ;
#70 = PRODUCT_DEFINITION ( 'UNKNOWN', '', #170, #16 ) ;
#71 = CALENDAR_DATE ( 2021, 2, 12 ) ;
#72 = CONICAL_SURFACE ( 'NONE', #3, 1.600000000000000977, 0.7853981633974512766 ) ;
#73 = APPLICATION_CONTEXT ( 'configuration controlled 3d designs of mechanical parts and assemblies' ) ;
#74 = EDGE_LOOP ( 'NONE', ( #129 ) ) ;
#75 = EDGE_CURVE ( 'NONE', #160, #160, #229, .T. ) ;
#76 = APPROVAL ( #127, 'UNSPECIFIED' ) ;
#77 = DIRECTION ( 'NONE',  ( -3.491481338843133355E-15, 1.224646799147353207E-16, -1.000000000000000000 ) ) ;
#78 = DIRECTION ( 'NONE',  ( 0.0000000000000000000, 1.000000000000000000, 0.0000000000000000000 ) ) ;
#79 = CARTESIAN_POINT ( 'NONE',  ( 2.793185071074506684E-13, 1.599999999999991207, 80.00000000000000000 ) ) ;
#80 = AXIS2_PLACEMENT_3D ( 'NONE', #65, #233, #81 ) ;
#81 = DIRECTION ( 'NONE',  ( 4.106460435793645641E-31, 1.000000000000000000, 1.155865855528246695E-16 ) ) ;
#82 = CARTESIAN_POINT ( 'NONE',  ( 0.0000000000000000000, 0.0000000000000000000, 0.0000000000000000000 ) ) ;
#83 = DIRECTION ( 'NONE',  ( 4.275831445896958607E-31, 1.000000000000000000, 1.224646799147353207E-16 ) ) ;
#84 = ADVANCED_FACE ( 'NONE', ( #142 ), #92, .T. ) ;
#85 = CARTESIAN_POINT ( 'NONE',  ( 4.189777606611760026E-14, 2.345000000000018847, 12.00000000000000000 ) ) ;
#86 = APPROVAL_DATE_TIME ( #69, #143 ) ;
#87 = ADVANCED_FACE ( 'NONE', ( #178, #7 ), #130, .T. ) ;
#88 = PERSON_AND_ORGANIZATION ( #242, #95 ) ;
#89 = ORIENTED_EDGE ( 'NONE', *, *, #75, .F. ) ;
#90 = ORIENTED_EDGE ( 'NONE', *, *, #18, .T. ) ;
#91 = AXIS2_PLACEMENT_3D ( 'NONE', #138, #12, #159 ) ;
#92 = PLANE ( 'NONE',  #137 ) ;
#93 = DIRECTION ( 'NONE',  ( -4.275831445896958607E-31, -1.000000000000000000, -1.224646799147353207E-16 ) ) ;
#94 = CARTESIAN_POINT ( 'NONE',  ( 4.189777606611760026E-14, 1.758468345171041429E-32, 12.00000000000000000 ) ) ;
#95 = ORGANIZATION ( 'UNSPECIFIED', 'UNSPECIFIED', '' ) ;
#96 = FACE_OUTER_BOUND ( 'NONE', #22, .T. ) ;
#97 = CARTESIAN_POINT ( 'NONE',  ( 2.793185071074506684E-13, -9.797174393178826052E-15, 80.00000000000000000 ) ) ;
#98 = VERTEX_POINT ( 'NONE', #85 ) ;
#99 = CC_DESIGN_PERSON_AND_ORGANIZATION_ASSIGNMENT ( #19, #145, ( #170 ) ) ;
#100 = UNCERTAINTY_MEASURE_WITH_UNIT (LENGTH_MEASURE( 1.000000000000000082E-05 ), #216, 'distance_accuracy_value', 'NONE');
#101 = CC_DESIGN_APPROVAL ( #143, ( #201 ) ) ;
#102 = DATE_AND_TIME ( #162, #152 ) ;
#103 = MANIFOLD_SOLID_BREP ( 'Corps-Déplacer/Copier1[1]', #24 ) ;
#104 = COORDINATED_UNIVERSAL_TIME_OFFSET ( 1, 0, .AHEAD. ) ;
#105 = APPROVAL_ROLE ( '' ) ;
#106 = CIRCLE ( 'NONE', #232, 1.945000000000018936 ) ;
#107 = APPROVAL_DATE_TIME ( #32, #76 ) ;
#108 = COORDINATED_UNIVERSAL_TIME_OFFSET ( 1, 0, .AHEAD. ) ;
#109 = EDGE_LOOP ( 'NONE', ( #212 ) ) ;
#110 = EDGE_CURVE ( 'NONE', #66, #66, #223, .T. ) ;
#111 = AXIS2_PLACEMENT_3D ( 'NONE', #25, #11, #78 ) ;
#112 = EDGE_LOOP ( 'NONE', ( #186 ) ) ;
#113 = EDGE_LOOP ( 'NONE', ( #21 ) ) ;
#114 = DIRECTION ( 'NONE',  ( -3.491481338843133355E-15, 1.224646799147353207E-16, -1.000000000000000000 ) ) ;
#115 = DIRECTION ( 'NONE',  ( -3.491481338843133355E-15, 1.224646799147353207E-16, -1.000000000000000000 ) ) ;
#116 = APPLICATION_PROTOCOL_DEFINITION ( 'international standard', 'config_control_design', 1994, #122 ) ;
#117 = DIRECTION ( 'NONE',  ( 0.0000000000000000000, 1.000000000000000000, 0.0000000000000000000 ) ) ;
#118 = CARTESIAN_POINT ( 'NONE',  ( 2.793185071074506684E-13, 1.199807826129472128E-32, 80.00000000000000000 ) ) ;
#119 = CIRCLE ( 'NONE', #111, 2.000000000000000888 ) ;
#120 = DIRECTION ( 'NONE',  ( 0.0000000000000000000, 1.000000000000000000, 0.0000000000000000000 ) ) ;
#121 = CARTESIAN_POINT ( 'NONE',  ( 0.0000000000000000000, 1.945000000000018936, 0.0000000000000000000 ) ) ;
#122 = APPLICATION_CONTEXT ( 'configuration controlled 3d designs of mechanical parts and assemblies' ) ;
#123 = ADVANCED_FACE ( 'NONE', ( #56 ), #215, .F. ) ;
#124 = APPROVAL_STATUS ( 'not_yet_approved' ) ;
#125 =( GEOMETRIC_REPRESENTATION_CONTEXT ( 3 ) GLOBAL_UNCERTAINTY_ASSIGNED_CONTEXT ( ( #100 ) ) GLOBAL_UNIT_ASSIGNED_CONTEXT ( ( #216, #237, #67 ) ) REPRESENTATION_CONTEXT ( 'NONE', 'WORKASPACE' ) );
#126 = APPROVAL_PERSON_ORGANIZATION ( #181, #143, #202 ) ;
#127 = APPROVAL_STATUS ( 'not_yet_approved' ) ;
#128 = DATE_TIME_ROLE ( 'classification_date' ) ;
#129 = ORIENTED_EDGE ( 'NONE', *, *, #191, .T. ) ;
#130 = CONICAL_SURFACE ( 'NONE', #180, 2.345000000000020179, 0.5235987755983000369 ) ;
#131 = PERSON_AND_ORGANIZATION_ROLE ( 'creator' ) ;
#132 = ORIENTED_EDGE ( 'NONE', *, *, #110, .F. ) ;
#133 = ADVANCED_FACE ( 'NONE', ( #158 ), #156, .F. ) ;
#134 = FACE_BOUND ( 'NONE', #231, .T. ) ;
#135 = CARTESIAN_POINT ( 'NONE',  ( 4.189777606611760026E-14, -1.469576158976823947E-15, 12.00000000000000000 ) ) ;
#136 = DIRECTION ( 'NONE',  ( -3.491481338843133355E-15, 1.224646799147353207E-16, -1.000000000000000000 ) ) ;
#137 = AXIS2_PLACEMENT_3D ( 'NONE', #45, #177, #58 ) ;
#138 = CARTESIAN_POINT ( 'NONE',  ( -4.158246081134832966E-31, 1.458516388638671002E-32, -1.190969012170812717E-16 ) ) ;
#139 = ADVANCED_FACE ( 'NONE', ( #44, #43 ), #196, .T. ) ;
#140 = DIRECTION ( 'NONE',  ( 1.000000000000000000, 0.0000000000000000000, 0.0000000000000000000 ) ) ;
#141 = DIRECTION ( 'NONE',  ( 3.491481338843133355E-15, -1.224646799147353207E-16, 1.000000000000000000 ) ) ;
#142 = FACE_OUTER_BOUND ( 'NONE', #230, .T. ) ;
#143 = APPROVAL ( #124, 'UNSPECIFIED' ) ;
#144 = DIRECTION ( 'NONE',  ( -3.491481338843133355E-15, 1.224646799147353207E-16, -1.000000000000000000 ) ) ;
#145 = PERSON_AND_ORGANIZATION_ROLE ( 'design_supplier' ) ;
#146 = PRODUCT ( '321695', '321695', '', ( #219 ) ) ;
#147 = APPROVAL_STATUS ( 'not_yet_approved' ) ;
#148 = APPROVAL_ROLE ( '' ) ;
#149 = EDGE_CURVE ( 'NONE', #47, #47, #106, .T. ) ;
#150 = EDGE_LOOP ( 'NONE', ( #151 ) ) ;
#151 = ORIENTED_EDGE ( 'NONE', *, *, #155, .T. ) ;
#152 = LOCAL_TIME ( 13, 56, 36.00000000000000000, #228 ) ;
#153 = CYLINDRICAL_SURFACE ( 'NONE', #175, 2.345000000000019735 ) ;
#154 = FACE_OUTER_BOUND ( 'NONE', #38, .T. ) ;
#155 = EDGE_CURVE ( 'NONE', #197, #197, #166, .T. ) ;
#156 = PLANE ( 'NONE',  #161 ) ;
#157 = CONICAL_SURFACE ( 'NONE', #37, 1.945000000000018936, 0.7853981633974492782 ) ;
#158 = FACE_OUTER_BOUND ( 'NONE', #113, .T. ) ;
#159 = DIRECTION ( 'NONE',  ( 4.275831445896958607E-31, 1.000000000000000000, 1.224646799147353207E-16 ) ) ;
#160 = VERTEX_POINT ( 'NONE', #179 ) ;
#161 = AXIS2_PLACEMENT_3D ( 'NONE', #118, #214, #83 ) ;
#162 = CALENDAR_DATE ( 2021, 2, 12 ) ;
#163 = CLOSED_SHELL ( 'NONE', ( #213, #84, #13, #198 ) ) ;
#164 = PERSON_AND_ORGANIZATION ( #242, #95 ) ;
#165 = CC_DESIGN_PERSON_AND_ORGANIZATION_ASSIGNMENT ( #68, #227, ( #70 ) ) ;
#166 = CIRCLE ( 'NONE', #46, 1.999999999999992228 ) ;
#167 = ORIENTED_EDGE ( 'NONE', *, *, #18, .F. ) ;
#168 = CC_DESIGN_PERSON_AND_ORGANIZATION_ASSIGNMENT ( #182, #36, ( #201 ) ) ;
#169 = APPROVAL_PERSON_ORGANIZATION ( #88, #76, #148 ) ;
#170 = PRODUCT_DEFINITION_FORMATION_WITH_SPECIFIED_SOURCE ( 'ANY', '', #146, .NOT_KNOWN. ) ;
#171 = DIRECTION ( 'NONE',  ( 0.0000000000000000000, 1.000000000000000000, 0.0000000000000000000 ) ) ;
#172 = CARTESIAN_POINT ( 'NONE',  ( -8.316492162269665931E-31, 2.917032777277342004E-32, -2.381938024341625433E-16 ) ) ;
#173 = DIRECTION ( 'NONE',  ( 4.275831445896958607E-31, 1.000000000000000000, 1.224646799147353454E-16 ) ) ;
#174 = VERTEX_POINT ( 'NONE', #79 ) ;
#175 = AXIS2_PLACEMENT_3D ( 'NONE', #30, #144, #224 ) ;
#176 = LOCAL_TIME ( 13, 56, 36.00000000000000000, #203 ) ;
#177 = DIRECTION ( 'NONE',  ( 3.491481338843133355E-15, -1.224646799147353207E-16, 1.000000000000000000 ) ) ;
#178 = FACE_BOUND ( 'NONE', #150, .T. ) ;
#179 = CARTESIAN_POINT ( 'NONE',  ( 1.396592535537253737E-15, 2.345000000000019735, 0.4000000000000000777 ) ) ;
#180 = AXIS2_PLACEMENT_3D ( 'NONE', #192, #27, #120 ) ;
#181 = PERSON_AND_ORGANIZATION ( #242, #95 ) ;
#182 = PERSON_AND_ORGANIZATION ( #242, #95 ) ;
#183 = DATE_TIME_ROLE ( 'creation_date' ) ;
#184 = MANIFOLD_SOLID_BREP ( 'Corps-Déplacer/Copier1[2]', #163 ) ;
#185 = PERSON_AND_ORGANIZATION ( #242, #95 ) ;
#186 = ORIENTED_EDGE ( 'NONE', *, *, #110, .T. ) ;
#187 = EDGE_CURVE ( 'NONE', #174, #174, #200, .T. ) ;
#188 = EDGE_LOOP ( 'NONE', ( #189 ) ) ;
#189 = ORIENTED_EDGE ( 'NONE', *, *, #149, .F. ) ;
#190 = DIRECTION ( 'NONE',  ( 0.0000000000000000000, 1.000000000000000000, 0.0000000000000000000 ) ) ;
#191 = EDGE_CURVE ( 'NONE', #240, #240, #119, .T. ) ;
#192 = CARTESIAN_POINT ( 'NONE',  ( 4.189777606611760026E-14, -1.469576158976823947E-15, 12.00000000000000000 ) ) ;
#193 = CARTESIAN_POINT ( 'NONE',  ( 4.189777606611760026E-14, -1.469576158976823947E-15, 12.00000000000000000 ) ) ;
#194 = DIRECTION ( 'NONE',  ( -3.491481338843133355E-15, 1.224646799147353207E-16, -1.000000000000000000 ) ) ;
#195 = CC_DESIGN_SECURITY_CLASSIFICATION ( #201, ( #170 ) ) ;
#196 = CYLINDRICAL_SURFACE ( 'NONE', #59, 1.999999999999996669 ) ;
#197 = VERTEX_POINT ( 'NONE', #236 ) ;
#198 = ADVANCED_FACE ( 'NONE', ( #238, #63 ), #157, .T. ) ;
#199 = SHAPE_DEFINITION_REPRESENTATION ( #204, #8 ) ;
#200 = CIRCLE ( 'NONE', #55, 1.600000000000000977 ) ;
#201 = SECURITY_CLASSIFICATION ( '', '', #209 ) ;
#202 = APPROVAL_ROLE ( '' ) ;
#203 = COORDINATED_UNIVERSAL_TIME_OFFSET ( 1, 0, .AHEAD. ) ;
#204 = PRODUCT_DEFINITION_SHAPE ( 'NONE', 'NONE',  #70 ) ;
#205 = COORDINATED_UNIVERSAL_TIME_OFFSET ( 1, 0, .AHEAD. ) ;
#206 = LOCAL_TIME ( 13, 56, 36.00000000000000000, #205 ) ;
#207 = CC_DESIGN_APPROVAL ( #76, ( #170 ) ) ;
#208 = ORIENTED_EDGE ( 'NONE', *, *, #187, .T. ) ;
#209 = SECURITY_CLASSIFICATION_LEVEL ( 'unclassified' ) ;
#210 = PRODUCT_RELATED_PRODUCT_CATEGORY ( 'detail', '', ( #146 ) ) ;
#211 = AXIS2_PLACEMENT_3D ( 'NONE', #82, #62, #140 ) ;
#212 = ORIENTED_EDGE ( 'NONE', *, *, #191, .F. ) ;
#213 = ADVANCED_FACE ( 'NONE', ( #28, #96 ), #153, .T. ) ;
#214 = DIRECTION ( 'NONE',  ( -3.491481338843133355E-15, 1.224646799147353207E-16, -1.000000000000000000 ) ) ;
#215 = PLANE ( 'NONE',  #31 ) ;
#217 = AXIS2_PLACEMENT_3D ( 'NONE', #193, #136, #26 ) ;
#216 =( LENGTH_UNIT ( ) NAMED_UNIT ( * ) SI_UNIT ( .MILLI., .METRE. ) );
#218 = DIRECTION ( 'NONE',  ( -3.491481338843133355E-15, 1.224646799147353207E-16, -1.000000000000000000 ) ) ;
#219 = MECHANICAL_CONTEXT ( 'NONE', #122, 'mechanical' ) ;
#220 = DIRECTION ( 'NONE',  ( -4.275831445896958607E-31, -1.000000000000000000, -1.224646799147353454E-16 ) ) ;
#221 = CARTESIAN_POINT ( 'NONE',  ( 2.793185071074506684E-13, -9.797174393178826052E-15, 80.00000000000000000 ) ) ;
#222 = CARTESIAN_POINT ( 'NONE',  ( 2.779219145719134403E-13, 1.999999999999991340, 79.60000000000000853 ) ) ;
#223 = CIRCLE ( 'NONE', #40, 2.345000000000020179 ) ;
#224 = DIRECTION ( 'NONE',  ( 4.275831445896959482E-31, 1.000000000000000000, 1.224646799147353207E-16 ) ) ;
#225 = CC_DESIGN_DATE_AND_TIME_ASSIGNMENT ( #50, #128, ( #201 ) ) ;
#226 = PERSON_AND_ORGANIZATION ( #242, #95 ) ;
#227 = PERSON_AND_ORGANIZATION_ROLE ( 'creator' ) ;
#228 = COORDINATED_UNIVERSAL_TIME_OFFSET ( 1, 0, .AHEAD. ) ;
#229 = CIRCLE ( 'NONE', #80, 2.345000000000019735 ) ;
#230 = EDGE_LOOP ( 'NONE', ( #132 ) ) ;
#231 = EDGE_LOOP ( 'NONE', ( #208 ) ) ;
#232 = AXIS2_PLACEMENT_3D ( 'NONE', #172, #218, #173 ) ;
#233 = DIRECTION ( 'NONE',  ( -3.491481338843133355E-15, 1.224646799147353207E-16, -1.000000000000000000 ) ) ;
#234 = PLANE ( 'NONE',  #91 ) ;
#235 = CARTESIAN_POINT ( 'NONE',  ( -8.316492162269665931E-31, 2.917032777277342004E-32, -2.381938024341625433E-16 ) ) ;
#236 = CARTESIAN_POINT ( 'NONE',  ( 4.398413702614921078E-14, 1.999999999999990452, 12.59755752861130951 ) ) ;
#237 =( NAMED_UNIT ( * ) PLANE_ANGLE_UNIT ( ) SI_UNIT ( $, .RADIAN. ) );
#238 = FACE_OUTER_BOUND ( 'NONE', #35, .T. ) ;
#239 = CARTESIAN_POINT ( 'NONE',  ( 0.0000000000000000000, 0.0000000000000000000, 0.0000000000000000000 ) ) ;
#240 = VERTEX_POINT ( 'NONE', #222 ) ;
#241 = CARTESIAN_POINT ( 'NONE',  ( 4.189777606611760026E-14, 2.345000000000018847, 12.00000000000000000 ) ) ;
#242 = PERSON ( 'UNSPECIFIED', 'UNSPECIFIED', 'UNSPECIFIED', ('UNSPECIFIED'), ('UNSPECIFIED'), ('UNSPECIFIED') ) ;
#243 = APPROVAL_PERSON_ORGANIZATION ( #185, #57, #105 ) ;
ENDSEC;
END-ISO-10303-21;
