ISO-10303-21;
HEADER;
FILE_DESCRIPTION (( 'STEP AP203' ),
    '1' );
FILE_NAME ('321694.step',
    '2021-12-02T12:56:36',
    ( '' ),
    ( '' ),
    'SwSTEP 2.0',
    'SolidWorks 2019',
    '' );
FILE_SCHEMA (( 'CONFIG_CONTROL_DESIGN' ));
ENDSEC;

DATA;
#1 = CARTESIAN_POINT ( 'NONE',  ( -8.295113005040181217E-31, 2.909533978364031566E-32, -2.375814790345888064E-16 ) ) ;
#2 = APPLICATION_PROTOCOL_DEFINITION ( 'international standard', 'config_control_design', 1994, #68 ) ;
#3 = CC_DESIGN_APPROVAL ( #7, ( #179 ) ) ;
#4 = VERTEX_POINT ( 'NONE', #136 ) ;
#5 = DATE_TIME_ROLE ( 'creation_date' ) ;
#6 = DIRECTION ( 'NONE',  ( 0.0000000000000000000, 1.000000000000000000, 0.0000000000000000000 ) ) ;
#7 = APPROVAL ( #158, 'UNSPECIFIED' ) ;
#8 = AXIS2_PLACEMENT_3D ( 'NONE', #72, #224, #239 ) ;
#9 = CALENDAR_DATE ( 2021, 2, 12 ) ;
#10 = EDGE_LOOP ( 'NONE', ( #162 ) ) ;
#11 = COORDINATED_UNIVERSAL_TIME_OFFSET ( 1, 0, .AHEAD. ) ;
#12 = ORIENTED_EDGE ( 'NONE', *, *, #22, .T. ) ;
#13 = APPROVAL_PERSON_ORGANIZATION ( #177, #7, #59 ) ;
#14 = ADVANCED_FACE ( 'NONE', ( #80, #214 ), #99, .T. ) ;
#15 = FACE_OUTER_BOUND ( 'NONE', #128, .T. ) ;
#16 = PRODUCT_DEFINITION_SHAPE ( 'NONE', 'NONE',  #179 ) ;
#17 = DIRECTION ( 'NONE',  ( 0.0000000000000000000, 1.000000000000000000, 0.0000000000000000000 ) ) ;
#18 = CARTESIAN_POINT ( 'NONE',  ( 1.396592535537252750E-15, -4.898587196589410610E-17, 0.3999999999999998002 ) ) ;
#19 = DIRECTION ( 'NONE',  ( -3.491481338843133355E-15, 1.224646799147353207E-16, -1.000000000000000000 ) ) ;
#20 = FACE_OUTER_BOUND ( 'NONE', #199, .T. ) ;
#21 = VERTEX_POINT ( 'NONE', #210 ) ;
#22 = EDGE_CURVE ( 'NONE', #77, #77, #139, .T. ) ;
#23 = APPROVAL_DATE_TIME ( #193, #137 ) ;
#24 = PERSON_AND_ORGANIZATION_ROLE ( 'creator' ) ;
#25 = ADVANCED_FACE ( 'NONE', ( #20 ), #85, .T. ) ;
#26 = VERTEX_POINT ( 'NONE', #58 ) ;
#27 = APPROVAL_ROLE ( '' ) ;
#28 = APPROVAL_STATUS ( 'not_yet_approved' ) ;
#29 = AXIS2_PLACEMENT_3D ( 'NONE', #1, #240, #84 ) ;
#30 = SECURITY_CLASSIFICATION ( '', '', #65 ) ;
#31 = ORIENTED_EDGE ( 'NONE', *, *, #22, .F. ) ;
#32 = PRODUCT ( '321694', '321694', '', ( #113 ) ) ;
#33 = DIRECTION ( 'NONE',  ( 0.0000000000000000000, 1.000000000000000000, 0.0000000000000000000 ) ) ;
#34 = FACE_OUTER_BOUND ( 'NONE', #81, .T. ) ;
#35 = CARTESIAN_POINT ( 'NONE',  ( 4.189777606611760026E-14, -1.469576158976823947E-15, 12.00000000000000000 ) ) ;
#36 = CC_DESIGN_PERSON_AND_ORGANIZATION_ASSIGNMENT ( #62, #216, ( #140 ) ) ;
#37 = DIRECTION ( 'NONE',  ( 4.275831445896958607E-31, 1.000000000000000000, 1.224646799147353207E-16 ) ) ;
#38 = PLANE ( 'NONE',  #238 ) ;
#39 = CIRCLE ( 'NONE', #94, 1.600000000000000977 ) ;
#40 = LOCAL_TIME ( 13, 56, 36.00000000000000000, #116 ) ;
#41 = EDGE_CURVE ( 'NONE', #194, #194, #87, .T. ) ;
#42 = DATE_AND_TIME ( #213, #92 ) ;
#43 = CARTESIAN_POINT ( 'NONE',  ( 1.396592535537253737E-15, 2.340000000000019842, 0.4000000000000000777 ) ) ;
#44 = EDGE_CURVE ( 'NONE', #26, #26, #127, .T. ) ;
#45 = PERSON_AND_ORGANIZATION ( #233, #55 ) ;
#46 = LOCAL_TIME ( 13, 56, 36.00000000000000000, #197 ) ;
#47 = EDGE_LOOP ( 'NONE', ( #96 ) ) ;
#48 = ADVANCED_FACE ( 'NONE', ( #187, #34 ), #168, .T. ) ;
#49 = AXIS2_PLACEMENT_3D ( 'NONE', #18, #19, #170 ) ;
#50 = CARTESIAN_POINT ( 'NONE',  ( 4.189777606611760026E-14, 1.754718945714386484E-32, 12.00000000000000000 ) ) ;
#51 = DIRECTION ( 'NONE',  ( -3.491481338843133355E-15, 1.224646799147353207E-16, -1.000000000000000000 ) ) ;
#52 = PLANE ( 'NONE',  #147 ) ;
#53 = FACE_OUTER_BOUND ( 'NONE', #67, .T. ) ;
#54 = DIRECTION ( 'NONE',  ( 3.491481338843133355E-15, -1.224646799147353207E-16, 1.000000000000000000 ) ) ;
#55 = ORGANIZATION ( 'UNSPECIFIED', 'UNSPECIFIED', '' ) ;
#56 =( LENGTH_UNIT ( ) NAMED_UNIT ( * ) SI_UNIT ( .MILLI., .METRE. ) );
#57 =( NAMED_UNIT ( * ) PLANE_ANGLE_UNIT ( ) SI_UNIT ( $, .RADIAN. ) );
#58 = CARTESIAN_POINT ( 'NONE',  ( 4.189777606611760026E-14, 2.340000000000018510, 12.00000000000000000 ) ) ;
#59 = APPROVAL_ROLE ( '' ) ;
#60 = DATE_AND_TIME ( #232, #209 ) ;
#61 = EDGE_CURVE ( 'NONE', #159, #159, #135, .T. ) ;
#62 = PERSON_AND_ORGANIZATION ( #233, #55 ) ;
#63 = EDGE_LOOP ( 'NONE', ( #145 ) ) ;
#64 = AXIS2_PLACEMENT_3D ( 'NONE', #243, #83, #33 ) ;
#65 = SECURITY_CLASSIFICATION_LEVEL ( 'unclassified' ) ;
#66 = PERSON_AND_ORGANIZATION ( #233, #55 ) ;
#67 = EDGE_LOOP ( 'NONE', ( #237 ) ) ;
#68 = APPLICATION_CONTEXT ( 'configuration controlled 3d designs of mechanical parts and assemblies' ) ;
#69 = EDGE_LOOP ( 'NONE', ( #217 ) ) ;
#70 = CARTESIAN_POINT ( 'NONE',  ( 4.189777606611760026E-14, -1.469576158976823947E-15, 12.00000000000000000 ) ) ;
#71 = DIRECTION ( 'NONE',  ( 4.275831445896958607E-31, 1.000000000000000000, 1.224646799147353207E-16 ) ) ;
#72 = CARTESIAN_POINT ( 'NONE',  ( 4.189777606611760026E-14, 1.754718945714386484E-32, 12.00000000000000000 ) ) ;
#73 = FACE_BOUND ( 'NONE', #165, .T. ) ;
#74 = FACE_OUTER_BOUND ( 'NONE', #47, .T. ) ;
#75 = DIRECTION ( 'NONE',  ( 1.000000000000000000, 0.0000000000000000000, 0.0000000000000000000 ) ) ;
#76 = DIRECTION ( 'NONE',  ( 0.0000000000000000000, 0.0000000000000000000, 1.000000000000000000 ) ) ;
#77 = VERTEX_POINT ( 'NONE', #79 ) ;
#78 = CARTESIAN_POINT ( 'NONE',  ( 4.189777606611760026E-14, 2.340000000000018510, 12.00000000000000000 ) ) ;
#79 = CARTESIAN_POINT ( 'NONE',  ( 0.0000000000000000000, 1.940000000000018821, 0.0000000000000000000 ) ) ;
#80 = FACE_BOUND ( 'NONE', #235, .T. ) ;
#81 = EDGE_LOOP ( 'NONE', ( #82 ) ) ;
#82 = ORIENTED_EDGE ( 'NONE', *, *, #101, .T. ) ;
#83 = DIRECTION ( 'NONE',  ( -3.491481338843133355E-15, 1.224646799147353207E-16, -1.000000000000000000 ) ) ;
#84 = DIRECTION ( 'NONE',  ( 4.275831445896959482E-31, 1.000000000000000000, 1.224646799147353207E-16 ) ) ;
#85 = PLANE ( 'NONE',  #201 ) ;
#86 = CYLINDRICAL_SURFACE ( 'NONE', #178, 2.340000000000019842 ) ;
#87 = CIRCLE ( 'NONE', #231, 1.999999999999992228 ) ;
#88 = DIRECTION ( 'NONE',  ( 3.491481338843133355E-15, -1.224646799147353207E-16, 1.000000000000000000 ) ) ;
#89 = CARTESIAN_POINT ( 'NONE',  ( 0.0000000000000000000, 0.0000000000000000000, 0.0000000000000000000 ) ) ;
#90 = DIRECTION ( 'NONE',  ( -3.491481338843133355E-15, 1.224646799147353207E-16, -1.000000000000000000 ) ) ;
#91 = CLOSED_SHELL ( 'NONE', ( #104, #14, #48, #186, #169 ) ) ;
#92 = LOCAL_TIME ( 13, 56, 36.00000000000000000, #227 ) ;
#93 = CALENDAR_DATE ( 2021, 2, 12 ) ;
#94 = AXIS2_PLACEMENT_3D ( 'NONE', #191, #205, #103 ) ;
#95 = CONICAL_SURFACE ( 'NONE', #64, 1.600000000000000977, 0.7853981633974512766 ) ;
#96 = ORIENTED_EDGE ( 'NONE', *, *, #101, .F. ) ;
#97 = ADVANCED_BREP_SHAPE_REPRESENTATION ( '321694', ( #109, #188, #143 ), #106 ) ;
#98 = APPLICATION_CONTEXT ( 'configuration controlled 3d designs of mechanical parts and assemblies' ) ;
#99 = CONICAL_SURFACE ( 'NONE', #242, 2.340000000000019842, 0.5235987755983003700 ) ;
#100 = LOCAL_TIME ( 13, 56, 36.00000000000000000, #11 ) ;
#101 = EDGE_CURVE ( 'NONE', #21, #21, #198, .T. ) ;
#102 = EDGE_LOOP ( 'NONE', ( #219 ) ) ;
#103 = DIRECTION ( 'NONE',  ( 0.0000000000000000000, 1.000000000000000000, 0.0000000000000000000 ) ) ;
#104 = ADVANCED_FACE ( 'NONE', ( #108 ), #241, .F. ) ;
#105 = UNCERTAINTY_MEASURE_WITH_UNIT (LENGTH_MEASURE( 1.000000000000000082E-05 ), #56, 'distance_accuracy_value', 'NONE');
#106 =( GEOMETRIC_REPRESENTATION_CONTEXT ( 3 ) GLOBAL_UNCERTAINTY_ASSIGNED_CONTEXT ( ( #105 ) ) GLOBAL_UNIT_ASSIGNED_CONTEXT ( ( #56, #57, #175 ) ) REPRESENTATION_CONTEXT ( 'NONE', 'WORKASPACE' ) );
#107 = DIRECTION ( 'NONE',  ( -3.491481338843133355E-15, 1.224646799147353207E-16, -1.000000000000000000 ) ) ;
#108 = FACE_OUTER_BOUND ( 'NONE', #150, .T. ) ;
#109 = MANIFOLD_SOLID_BREP ( 'Corps-Déplacer/Copier1[1]', #91 ) ;
#110 = FACE_OUTER_BOUND ( 'NONE', #63, .T. ) ;
#111 = DIRECTION ( 'NONE',  ( 0.0000000000000000000, 1.000000000000000000, 0.0000000000000000000 ) ) ;
#112 = AXIS2_PLACEMENT_3D ( 'NONE', #153, #222, #185 ) ;
#113 = MECHANICAL_CONTEXT ( 'NONE', #98, 'mechanical' ) ;
#114 = CARTESIAN_POINT ( 'NONE',  ( 4.395389991078642942E-14, 1.999999999999990452, 12.58889727457346375 ) ) ;
#115 = ADVANCED_FACE ( 'NONE', ( #53 ), #52, .T. ) ;
#116 = COORDINATED_UNIVERSAL_TIME_OFFSET ( 1, 0, .AHEAD. ) ;
#117 = APPROVAL_PERSON_ORGANIZATION ( #234, #173, #27 ) ;
#118 = CC_DESIGN_DATE_AND_TIME_ASSIGNMENT ( #60, #123, ( #30 ) ) ;
#119 = APPROVAL_STATUS ( 'not_yet_approved' ) ;
#120 = APPROVAL_DATE_TIME ( #142, #173 ) ;
#121 = ORIENTED_EDGE ( 'NONE', *, *, #61, .F. ) ;
#122 = AXIS2_PLACEMENT_3D ( 'NONE', #35, #208, #204 ) ;
#123 = DATE_TIME_ROLE ( 'classification_date' ) ;
#124 = ADVANCED_FACE ( 'NONE', ( #110, #131 ), #86, .T. ) ;
#125 = DESIGN_CONTEXT ( 'detailed design', #68, 'design' ) ;
#126 = ORIENTED_EDGE ( 'NONE', *, *, #44, .T. ) ;
#127 = CIRCLE ( 'NONE', #122, 2.340000000000019842 ) ;
#128 = EDGE_LOOP ( 'NONE', ( #163 ) ) ;
#129 = DIRECTION ( 'NONE',  ( -3.491481338843133355E-15, 1.224646799147353207E-16, -1.000000000000000000 ) ) ;
#130 = DIRECTION ( 'NONE',  ( -3.491481338843133355E-15, 1.224646799147353207E-16, -1.000000000000000000 ) ) ;
#131 = FACE_OUTER_BOUND ( 'NONE', #236, .T. ) ;
#132 = DIRECTION ( 'NONE',  ( 4.275831445896958607E-31, 1.000000000000000000, 1.224646799147353454E-16 ) ) ;
#133 = CC_DESIGN_PERSON_AND_ORGANIZATION_ASSIGNMENT ( #141, #24, ( #179 ) ) ;
#134 = DIRECTION ( 'NONE',  ( -4.275831445896959482E-31, -1.000000000000000000, -1.224646799147353207E-16 ) ) ;
#135 = CIRCLE ( 'NONE', #49, 2.340000000000019842 ) ;
#136 = CARTESIAN_POINT ( 'NONE',  ( 2.793185071074506684E-13, 1.599999999999991207, 80.00000000000000000 ) ) ;
#137 = APPROVAL ( #119, 'UNSPECIFIED' ) ;
#138 = CARTESIAN_POINT ( 'NONE',  ( 4.189777606611760026E-14, -1.469576158976823947E-15, 12.00000000000000000 ) ) ;
#139 = CIRCLE ( 'NONE', #29, 1.940000000000018821 ) ;
#140 = PRODUCT_DEFINITION_FORMATION_WITH_SPECIFIED_SOURCE ( 'ANY', '', #32, .NOT_KNOWN. ) ;
#141 = PERSON_AND_ORGANIZATION ( #233, #55 ) ;
#142 = DATE_AND_TIME ( #9, #100 ) ;
#143 = AXIS2_PLACEMENT_3D ( 'NONE', #89, #76, #75 ) ;
#144 = COORDINATED_UNIVERSAL_TIME_OFFSET ( 1, 0, .AHEAD. ) ;
#145 = ORIENTED_EDGE ( 'NONE', *, *, #225, .T. ) ;
#146 = ORIENTED_EDGE ( 'NONE', *, *, #41, .F. ) ;
#147 = AXIS2_PLACEMENT_3D ( 'NONE', #50, #88, #183 ) ;
#148 = PRODUCT_RELATED_PRODUCT_CATEGORY ( 'detail', '', ( #32 ) ) ;
#149 = AXIS2_PLACEMENT_3D ( 'NONE', #138, #90, #6 ) ;
#150 = EDGE_LOOP ( 'NONE', ( #126 ) ) ;
#151 = DIRECTION ( 'NONE',  ( 4.275831445896958607E-31, 1.000000000000000000, 1.224646799147353207E-16 ) ) ;
#152 = DIRECTION ( 'NONE',  ( -3.491481338843133355E-15, 1.224646799147353207E-16, -1.000000000000000000 ) ) ;
#153 = CARTESIAN_POINT ( 'NONE',  ( 2.779219145719134403E-13, -9.748188521212932624E-15, 79.60000000000000853 ) ) ;
#154 = CARTESIAN_POINT ( 'NONE',  ( -8.295113005040181217E-31, 2.909533978364031566E-32, -2.375814790345888064E-16 ) ) ;
#155 = EDGE_CURVE ( 'NONE', #4, #4, #39, .T. ) ;
#156 = APPROVAL_DATE_TIME ( #229, #7 ) ;
#157 = APPROVAL_PERSON_ORGANIZATION ( #45, #137, #230 ) ;
#158 = APPROVAL_STATUS ( 'not_yet_approved' ) ;
#159 = VERTEX_POINT ( 'NONE', #43 ) ;
#160 = CLOSED_SHELL ( 'NONE', ( #124, #115, #25, #192 ) ) ;
#161 = CC_DESIGN_SECURITY_CLASSIFICATION ( #30, ( #140 ) ) ;
#162 = ORIENTED_EDGE ( 'NONE', *, *, #155, .F. ) ;
#163 = ORIENTED_EDGE ( 'NONE', *, *, #61, .T. ) ;
#164 = CC_DESIGN_PERSON_AND_ORGANIZATION_ASSIGNMENT ( #215, #202, ( #30 ) ) ;
#165 = EDGE_LOOP ( 'NONE', ( #31 ) ) ;
#166 = CIRCLE ( 'NONE', #149, 2.340000000000019842 ) ;
#167 = CARTESIAN_POINT ( 'NONE',  ( 0.0000000000000000000, 0.0000000000000000000, 0.0000000000000000000 ) ) ;
#168 = CYLINDRICAL_SURFACE ( 'NONE', #190, 1.999999999999996669 ) ;
#169 = ADVANCED_FACE ( 'NONE', ( #203 ), #38, .F. ) ;
#170 = DIRECTION ( 'NONE',  ( 4.115234923904315021E-31, 1.000000000000000000, 1.158335654364845287E-16 ) ) ;
#171 = FACE_BOUND ( 'NONE', #69, .T. ) ;
#172 = CARTESIAN_POINT ( 'NONE',  ( 0.0000000000000000000, 0.0000000000000000000, 0.0000000000000000000 ) ) ;
#173 = APPROVAL ( #28, 'UNSPECIFIED' ) ;
#174 = PERSON_AND_ORGANIZATION ( #233, #55 ) ;
#175 =( NAMED_UNIT ( * ) SI_UNIT ( $, .STERADIAN. ) SOLID_ANGLE_UNIT ( ) );
#176 = VERTEX_POINT ( 'NONE', #78 ) ;
#177 = PERSON_AND_ORGANIZATION ( #233, #55 ) ;
#178 = AXIS2_PLACEMENT_3D ( 'NONE', #172, #129, #132 ) ;
#179 = PRODUCT_DEFINITION ( 'UNKNOWN', '', #140, #125 ) ;
#180 = PERSON_AND_ORGANIZATION_ROLE ( 'creator' ) ;
#181 = CC_DESIGN_DATE_AND_TIME_ASSIGNMENT ( #42, #5, ( #179 ) ) ;
#182 = ORIENTED_EDGE ( 'NONE', *, *, #41, .T. ) ;
#183 = DIRECTION ( 'NONE',  ( -4.275831445896958607E-31, -1.000000000000000000, -1.224646799147353207E-16 ) ) ;
#184 = CC_DESIGN_APPROVAL ( #173, ( #30 ) ) ;
#185 = DIRECTION ( 'NONE',  ( 0.0000000000000000000, 1.000000000000000000, 0.0000000000000000000 ) ) ;
#186 = ADVANCED_FACE ( 'NONE', ( #74, #171 ), #95, .T. ) ;
#187 = FACE_OUTER_BOUND ( 'NONE', #200, .T. ) ;
#188 = MANIFOLD_SOLID_BREP ( 'Corps-Déplacer/Copier1[2]', #160 ) ;
#189 = CARTESIAN_POINT ( 'NONE',  ( -4.147556502520090609E-31, 1.454766989182015783E-32, -1.187907395172944032E-16 ) ) ;
#190 = AXIS2_PLACEMENT_3D ( 'NONE', #167, #152, #151 ) ;
#191 = CARTESIAN_POINT ( 'NONE',  ( 2.793185071074506684E-13, -9.797174393178826052E-15, 80.00000000000000000 ) ) ;
#192 = ADVANCED_FACE ( 'NONE', ( #15, #73 ), #223, .T. ) ;
#193 = DATE_AND_TIME ( #93, #46 ) ;
#194 = VERTEX_POINT ( 'NONE', #114 ) ;
#195 = CC_DESIGN_APPROVAL ( #137, ( #140 ) ) ;
#196 = PERSON_AND_ORGANIZATION_ROLE ( 'design_owner' ) ;
#197 = COORDINATED_UNIVERSAL_TIME_OFFSET ( 1, 0, .AHEAD. ) ;
#198 = CIRCLE ( 'NONE', #112, 2.000000000000000888 ) ;
#199 = EDGE_LOOP ( 'NONE', ( #12 ) ) ;
#200 = EDGE_LOOP ( 'NONE', ( #146 ) ) ;
#201 = AXIS2_PLACEMENT_3D ( 'NONE', #189, #130, #71 ) ;
#202 = PERSON_AND_ORGANIZATION_ROLE ( 'classification_officer' ) ;
#203 = FACE_OUTER_BOUND ( 'NONE', #10, .T. ) ;
#204 = DIRECTION ( 'NONE',  ( 0.0000000000000000000, 1.000000000000000000, 0.0000000000000000000 ) ) ;
#205 = DIRECTION ( 'NONE',  ( -3.491481338843133355E-15, 1.224646799147353207E-16, -1.000000000000000000 ) ) ;
#206 = CARTESIAN_POINT ( 'NONE',  ( 2.793185071074506684E-13, 1.199807826129472128E-32, 80.00000000000000000 ) ) ;
#207 = CC_DESIGN_PERSON_AND_ORGANIZATION_ASSIGNMENT ( #66, #180, ( #140 ) ) ;
#208 = DIRECTION ( 'NONE',  ( -3.491481338843133355E-15, 1.224646799147353207E-16, -1.000000000000000000 ) ) ;
#209 = LOCAL_TIME ( 13, 56, 36.00000000000000000, #144 ) ;
#210 = CARTESIAN_POINT ( 'NONE',  ( 2.779219145719134403E-13, 1.999999999999991340, 79.60000000000000853 ) ) ;
#211 = APPLICATION_PROTOCOL_DEFINITION ( 'international standard', 'config_control_design', 1994, #98 ) ;
#212 = AXIS2_PLACEMENT_3D ( 'NONE', #154, #54, #134 ) ;
#213 = CALENDAR_DATE ( 2021, 2, 12 ) ;
#214 = FACE_OUTER_BOUND ( 'NONE', #102, .T. ) ;
#215 = PERSON_AND_ORGANIZATION ( #233, #55 ) ;
#216 = PERSON_AND_ORGANIZATION_ROLE ( 'design_supplier' ) ;
#217 = ORIENTED_EDGE ( 'NONE', *, *, #155, .T. ) ;
#218 = SHAPE_DEFINITION_REPRESENTATION ( #16, #97 ) ;
#219 = ORIENTED_EDGE ( 'NONE', *, *, #44, .F. ) ;
#220 = CC_DESIGN_PERSON_AND_ORGANIZATION_ASSIGNMENT ( #174, #196, ( #32 ) ) ;
#221 = CARTESIAN_POINT ( 'NONE',  ( 4.395389991078642942E-14, -1.541695275210123207E-15, 12.58889727457346375 ) ) ;
#222 = DIRECTION ( 'NONE',  ( -3.491481338843133355E-15, 1.224646799147353207E-16, -1.000000000000000000 ) ) ;
#223 = CONICAL_SURFACE ( 'NONE', #212, 1.940000000000018821, 0.7853981633974498333 ) ;
#224 = DIRECTION ( 'NONE',  ( 3.491481338843133355E-15, -1.224646799147353207E-16, 1.000000000000000000 ) ) ;
#225 = EDGE_CURVE ( 'NONE', #176, #176, #166, .T. ) ;
#226 = DIRECTION ( 'NONE',  ( -3.491481338843133355E-15, 1.224646799147353207E-16, -1.000000000000000000 ) ) ;
#227 = COORDINATED_UNIVERSAL_TIME_OFFSET ( 1, 0, .AHEAD. ) ;
#228 = CALENDAR_DATE ( 2021, 2, 12 ) ;
#229 = DATE_AND_TIME ( #228, #40 ) ;
#230 = APPROVAL_ROLE ( '' ) ;
#231 = AXIS2_PLACEMENT_3D ( 'NONE', #221, #226, #17 ) ;
#232 = CALENDAR_DATE ( 2021, 2, 12 ) ;
#233 = PERSON ( 'UNSPECIFIED', 'UNSPECIFIED', 'UNSPECIFIED', ('UNSPECIFIED'), ('UNSPECIFIED'), ('UNSPECIFIED') ) ;
#234 = PERSON_AND_ORGANIZATION ( #233, #55 ) ;
#235 = EDGE_LOOP ( 'NONE', ( #182 ) ) ;
#236 = EDGE_LOOP ( 'NONE', ( #121 ) ) ;
#237 = ORIENTED_EDGE ( 'NONE', *, *, #225, .F. ) ;
#238 = AXIS2_PLACEMENT_3D ( 'NONE', #206, #51, #37 ) ;
#239 = DIRECTION ( 'NONE',  ( -4.275831445896958607E-31, -1.000000000000000000, -1.224646799147353207E-16 ) ) ;
#240 = DIRECTION ( 'NONE',  ( -3.491481338843133355E-15, 1.224646799147353207E-16, -1.000000000000000000 ) ) ;
#241 = PLANE ( 'NONE',  #8 ) ;
#242 = AXIS2_PLACEMENT_3D ( 'NONE', #70, #107, #111 ) ;
#243 = CARTESIAN_POINT ( 'NONE',  ( 2.793185071074506684E-13, -9.797174393178826052E-15, 80.00000000000000000 ) ) ;
ENDSEC;
END-ISO-10303-21;
