ISO-10303-21;
HEADER;
FILE_DESCRIPTION (( 'STEP AP203' ),
    '1' );
FILE_NAME ('321693.step',
    '2021-12-02T12:56:35',
    ( '' ),
    ( '' ),
    'SwSTEP 2.0',
    'SolidWorks 2019',
    '' );
FILE_SCHEMA (( 'CONFIG_CONTROL_DESIGN' ));
ENDSEC;

DATA;
#1 = FACE_OUTER_BOUND ( 'NONE', #53, .T. ) ;
#2 = FACE_OUTER_BOUND ( 'NONE', #52, .T. ) ;
#3 = DIRECTION ( 'NONE',  ( 3.491481338843133355E-15, -1.224646799147353207E-16, 1.000000000000000000 ) ) ;
#4 = DIRECTION ( 'NONE',  ( 4.275831445896958607E-31, 1.000000000000000000, 1.224646799147353207E-16 ) ) ;
#5 = FACE_OUTER_BOUND ( 'NONE', #108, .T. ) ;
#6 = APPROVAL_PERSON_ORGANIZATION ( #180, #94, #104 ) ;
#7 = FACE_OUTER_BOUND ( 'NONE', #133, .T. ) ;
#8 = COORDINATED_UNIVERSAL_TIME_OFFSET ( 1, 0, .AHEAD. ) ;
#9 = DIRECTION ( 'NONE',  ( 1.000000000000000000, 0.0000000000000000000, 0.0000000000000000000 ) ) ;
#10 = PERSON_AND_ORGANIZATION ( #190, #110 ) ;
#11 = MANIFOLD_SOLID_BREP ( 'Corps-Déplacer/Copier1[2]', #158 ) ;
#12 = CARTESIAN_POINT ( 'NONE',  ( 1.396592535537254131E-15, 2.335000000000019948, 0.4000000000000001887 ) ) ;
#13 = ORIENTED_EDGE ( 'NONE', *, *, #42, .F. ) ;
#14 = APPROVAL ( #98, 'UNSPECIFIED' ) ;
#15 = PRODUCT ( '321693', '321693', '', ( #124 ) ) ;
#16 = AXIS2_PLACEMENT_3D ( 'NONE', #140, #20, #214 ) ;
#17 = FACE_BOUND ( 'NONE', #131, .T. ) ;
#18 = CC_DESIGN_PERSON_AND_ORGANIZATION_ASSIGNMENT ( #47, #85, ( #78 ) ) ;
#19 = PLANE ( 'NONE',  #16 ) ;
#20 = DIRECTION ( 'NONE',  ( 3.491481338843133355E-15, -1.224646799147353207E-16, 1.000000000000000000 ) ) ;
#21 = ADVANCED_FACE ( 'NONE', ( #1, #112 ), #51, .T. ) ;
#22 = DIRECTION ( 'NONE',  ( -3.491481338843133355E-15, 1.224646799147353207E-16, -1.000000000000000000 ) ) ;
#23 = DIRECTION ( 'NONE',  ( -3.491481338843133355E-15, 1.224646799147353207E-16, -1.000000000000000000 ) ) ;
#24 = LOCAL_TIME ( 13, 56, 35.00000000000000000, #8 ) ;
#25 = APPROVAL_STATUS ( 'not_yet_approved' ) ;
#26 = CC_DESIGN_PERSON_AND_ORGANIZATION_ASSIGNMENT ( #32, #240, ( #55 ) ) ;
#27 = VERTEX_POINT ( 'NONE', #12 ) ;
#28 = CIRCLE ( 'NONE', #166, 2.335000000000019948 ) ;
#29 = APPROVAL_DATE_TIME ( #217, #94 ) ;
#30 = AXIS2_PLACEMENT_3D ( 'NONE', #171, #3, #155 ) ;
#31 = EDGE_LOOP ( 'NONE', ( #71 ) ) ;
#32 = PERSON_AND_ORGANIZATION ( #190, #110 ) ;
#33 = EDGE_LOOP ( 'NONE', ( #129 ) ) ;
#34 = COORDINATED_UNIVERSAL_TIME_OFFSET ( 1, 0, .AHEAD. ) ;
#35 = CIRCLE ( 'NONE', #151, 1.935000000000018483 ) ;
#36 = CC_DESIGN_APPROVAL ( #94, ( #78 ) ) ;
#37 = ORIENTED_EDGE ( 'NONE', *, *, #42, .T. ) ;
#38 = FACE_OUTER_BOUND ( 'NONE', #208, .T. ) ;
#39 = FACE_OUTER_BOUND ( 'NONE', #109, .T. ) ;
#40 = CLOSED_SHELL ( 'NONE', ( #86, #145, #68, #21, #205 ) ) ;
#41 = CYLINDRICAL_SURFACE ( 'NONE', #170, 2.335000000000019948 ) ;
#42 = EDGE_CURVE ( 'NONE', #178, #178, #121, .T. ) ;
#43 = FACE_OUTER_BOUND ( 'NONE', #223, .T. ) ;
#44 = CARTESIAN_POINT ( 'NONE',  ( 2.779219145719134403E-13, -9.748188521212932624E-15, 79.60000000000000853 ) ) ;
#45 = AXIS2_PLACEMENT_3D ( 'NONE', #193, #213, #59 ) ;
#46 = APPROVAL_DATE_TIME ( #233, #14 ) ;
#47 = PERSON_AND_ORGANIZATION ( #190, #110 ) ;
#48 =( GEOMETRIC_REPRESENTATION_CONTEXT ( 3 ) GLOBAL_UNCERTAINTY_ASSIGNED_CONTEXT ( ( #224 ) ) GLOBAL_UNIT_ASSIGNED_CONTEXT ( ( #237, #143, #160 ) ) REPRESENTATION_CONTEXT ( 'NONE', 'WORKASPACE' ) );
#49 = APPLICATION_PROTOCOL_DEFINITION ( 'international standard', 'config_control_design', 1994, #179 ) ;
#50 = DATE_TIME_ROLE ( 'classification_date' ) ;
#51 = CONICAL_SURFACE ( 'NONE', #181, 1.600000000000000977, 0.7853981633974512766 ) ;
#52 = EDGE_LOOP ( 'NONE', ( #167 ) ) ;
#53 = EDGE_LOOP ( 'NONE', ( #203 ) ) ;
#54 = PERSON_AND_ORGANIZATION ( #190, #110 ) ;
#55 = SECURITY_CLASSIFICATION ( '', '', #87 ) ;
#56 = EDGE_LOOP ( 'NONE', ( #89 ) ) ;
#57 = CARTESIAN_POINT ( 'NONE',  ( 4.189777606611760026E-14, -1.469576158976823947E-15, 12.00000000000000000 ) ) ;
#58 = FACE_BOUND ( 'NONE', #243, .T. ) ;
#59 = DIRECTION ( 'NONE',  ( 4.275831445896958607E-31, 1.000000000000000000, 1.224646799147353207E-16 ) ) ;
#60 = EDGE_CURVE ( 'NONE', #80, #80, #35, .T. ) ;
#61 = DIRECTION ( 'NONE',  ( 0.0000000000000000000, 1.000000000000000000, 0.0000000000000000000 ) ) ;
#62 = DIRECTION ( 'NONE',  ( 0.0000000000000000000, 1.000000000000000000, 0.0000000000000000000 ) ) ;
#63 = AXIS2_PLACEMENT_3D ( 'NONE', #74, #232, #4 ) ;
#64 = CARTESIAN_POINT ( 'NONE',  ( 4.189777606611760026E-14, 2.335000000000018616, 12.00000000000000000 ) ) ;
#65 = DIRECTION ( 'NONE',  ( 0.0000000000000000000, 0.0000000000000000000, 1.000000000000000000 ) ) ;
#66 = COORDINATED_UNIVERSAL_TIME_OFFSET ( 1, 0, .AHEAD. ) ;
#67 = APPROVAL_DATE_TIME ( #105, #186 ) ;
#68 = ADVANCED_FACE ( 'NONE', ( #96, #5 ), #95, .T. ) ;
#69 = APPLICATION_CONTEXT ( 'configuration controlled 3d designs of mechanical parts and assemblies' ) ;
#70 = AXIS2_PLACEMENT_3D ( 'NONE', #227, #194, #62 ) ;
#71 = ORIENTED_EDGE ( 'NONE', *, *, #72, .T. ) ;
#72 = EDGE_CURVE ( 'NONE', #27, #27, #185, .T. ) ;
#73 = DIRECTION ( 'NONE',  ( -3.491481338843133355E-15, 1.224646799147353207E-16, -1.000000000000000000 ) ) ;
#74 = CARTESIAN_POINT ( 'NONE',  ( -4.136866923905346500E-31, 1.451017589725361112E-32, -1.184845778175075348E-16 ) ) ;
#75 = FACE_OUTER_BOUND ( 'NONE', #56, .T. ) ;
#76 = CARTESIAN_POINT ( 'NONE',  ( 4.392366279542366700E-14, -1.540634699971398558E-15, 12.58023702053562154 ) ) ;
#77 = DIRECTION ( 'NONE',  ( 4.124046990122525122E-31, 1.000000000000000000, 1.160816030498388734E-16 ) ) ;
#78 = PRODUCT_DEFINITION ( 'UNKNOWN', '', #132, #122 ) ;
#79 = CALENDAR_DATE ( 2021, 2, 12 ) ;
#80 = VERTEX_POINT ( 'NONE', #183 ) ;
#81 = AXIS2_PLACEMENT_3D ( 'NONE', #229, #152, #77 ) ;
#82 = CARTESIAN_POINT ( 'NONE',  ( 2.793185071074506684E-13, 1.599999999999991207, 80.00000000000000000 ) ) ;
#83 = EDGE_CURVE ( 'NONE', #100, #100, #222, .T. ) ;
#84 = CARTESIAN_POINT ( 'NONE',  ( 2.793185071074506684E-13, 1.199807826129472128E-32, 80.00000000000000000 ) ) ;
#85 = PERSON_AND_ORGANIZATION_ROLE ( 'creator' ) ;
#86 = ADVANCED_FACE ( 'NONE', ( #38 ), #156, .F. ) ;
#87 = SECURITY_CLASSIFICATION_LEVEL ( 'unclassified' ) ;
#88 = AXIS2_PLACEMENT_3D ( 'NONE', #76, #117, #61 ) ;
#89 = ORIENTED_EDGE ( 'NONE', *, *, #168, .F. ) ;
#90 = EDGE_LOOP ( 'NONE', ( #37 ) ) ;
#91 = CARTESIAN_POINT ( 'NONE',  ( 4.189777606611760026E-14, -1.469576158976823947E-15, 12.00000000000000000 ) ) ;
#92 = AXIS2_PLACEMENT_3D ( 'NONE', #44, #22, #189 ) ;
#93 = DIRECTION ( 'NONE',  ( 4.275831445896957731E-31, 1.000000000000000000, 1.224646799147352961E-16 ) ) ;
#94 = APPROVAL ( #25, 'UNSPECIFIED' ) ;
#95 = CYLINDRICAL_SURFACE ( 'NONE', #45, 1.999999999999996669 ) ;
#96 = FACE_OUTER_BOUND ( 'NONE', #33, .T. ) ;
#97 = FACE_OUTER_BOUND ( 'NONE', #221, .T. ) ;
#98 = APPROVAL_STATUS ( 'not_yet_approved' ) ;
#99 = ADVANCED_BREP_SHAPE_REPRESENTATION ( '321693', ( #175, #11, #219 ), #48 ) ;
#100 = VERTEX_POINT ( 'NONE', #147 ) ;
#101 = AXIS2_PLACEMENT_3D ( 'NONE', #191, #153, #135 ) ;
#102 = ADVANCED_FACE ( 'NONE', ( #7 ), #19, .T. ) ;
#103 = COORDINATED_UNIVERSAL_TIME_OFFSET ( 1, 0, .AHEAD. ) ;
#104 = APPROVAL_ROLE ( '' ) ;
#105 = DATE_AND_TIME ( #201, #212 ) ;
#106 = ADVANCED_FACE ( 'NONE', ( #43, #2 ), #41, .T. ) ;
#107 = SHAPE_DEFINITION_REPRESENTATION ( #241, #99 ) ;
#108 = EDGE_LOOP ( 'NONE', ( #226 ) ) ;
#109 = EDGE_LOOP ( 'NONE', ( #13 ) ) ;
#110 = ORGANIZATION ( 'UNSPECIFIED', 'UNSPECIFIED', '' ) ;
#111 = ORIENTED_EDGE ( 'NONE', *, *, #83, .T. ) ;
#112 = FACE_BOUND ( 'NONE', #90, .T. ) ;
#113 = FACE_OUTER_BOUND ( 'NONE', #31, .T. ) ;
#114 = ADVANCED_FACE ( 'NONE', ( #97 ), #209, .T. ) ;
#115 = CONICAL_SURFACE ( 'NONE', #200, 2.335000000000019948, 0.5235987755982993708 ) ;
#116 = PLANE ( 'NONE',  #230 ) ;
#117 = DIRECTION ( 'NONE',  ( -3.491481338843133355E-15, 1.224646799147353207E-16, -1.000000000000000000 ) ) ;
#118 = CC_DESIGN_DATE_AND_TIME_ASSIGNMENT ( #202, #50, ( #55 ) ) ;
#119 = CARTESIAN_POINT ( 'NONE',  ( 2.793185071074506684E-13, -9.797174393178826052E-15, 80.00000000000000000 ) ) ;
#120 = PERSON_AND_ORGANIZATION_ROLE ( 'design_owner' ) ;
#121 = CIRCLE ( 'NONE', #192, 1.600000000000000977 ) ;
#122 = DESIGN_CONTEXT ( 'detailed design', #69, 'design' ) ;
#123 = CALENDAR_DATE ( 2021, 2, 12 ) ;
#124 = MECHANICAL_CONTEXT ( 'NONE', #179, 'mechanical' ) ;
#125 = EDGE_CURVE ( 'NONE', #142, #142, #242, .T. ) ;
#126 = PERSON_AND_ORGANIZATION_ROLE ( 'design_supplier' ) ;
#127 = COORDINATED_UNIVERSAL_TIME_OFFSET ( 1, 0, .AHEAD. ) ;
#128 = ORIENTED_EDGE ( 'NONE', *, *, #60, .T. ) ;
#129 = ORIENTED_EDGE ( 'NONE', *, *, #83, .F. ) ;
#130 = APPROVAL_ROLE ( '' ) ;
#131 = EDGE_LOOP ( 'NONE', ( #149 ) ) ;
#132 = PRODUCT_DEFINITION_FORMATION_WITH_SPECIFIED_SOURCE ( 'ANY', '', #15, .NOT_KNOWN. ) ;
#133 = EDGE_LOOP ( 'NONE', ( #188 ) ) ;
#134 = CARTESIAN_POINT ( 'NONE',  ( -8.273733847810693000E-31, 2.902035179450722223E-32, -2.369691556350150696E-16 ) ) ;
#135 = DIRECTION ( 'NONE',  ( -4.275831445896957731E-31, -1.000000000000000000, -1.224646799147352961E-16 ) ) ;
#136 = CIRCLE ( 'NONE', #92, 2.000000000000000888 ) ;
#137 = DIRECTION ( 'NONE',  ( 4.275831445896957731E-31, 1.000000000000000000, 1.224646799147352961E-16 ) ) ;
#138 = APPROVAL_PERSON_ORGANIZATION ( #150, #186, #130 ) ;
#139 = PRODUCT_RELATED_PRODUCT_CATEGORY ( 'detail', '', ( #15 ) ) ;
#140 = CARTESIAN_POINT ( 'NONE',  ( 4.189777606611760026E-14, 1.750969546257732086E-32, 12.00000000000000000 ) ) ;
#141 = DIRECTION ( 'NONE',  ( -3.491481338843133355E-15, 1.224646799147353207E-16, -1.000000000000000000 ) ) ;
#142 = VERTEX_POINT ( 'NONE', #64 ) ;
#143 =( NAMED_UNIT ( * ) PLANE_ANGLE_UNIT ( ) SI_UNIT ( $, .RADIAN. ) );
#144 = LOCAL_TIME ( 13, 56, 35.00000000000000000, #66 ) ;
#145 = ADVANCED_FACE ( 'NONE', ( #58, #75 ), #115, .T. ) ;
#146 = CC_DESIGN_APPROVAL ( #186, ( #55 ) ) ;
#147 = CARTESIAN_POINT ( 'NONE',  ( 4.392366279542366700E-14, 1.999999999999990452, 12.58023702053562154 ) ) ;
#148 = CC_DESIGN_SECURITY_CLASSIFICATION ( #55, ( #132 ) ) ;
#149 = ORIENTED_EDGE ( 'NONE', *, *, #60, .F. ) ;
#150 = PERSON_AND_ORGANIZATION ( #190, #110 ) ;
#151 = AXIS2_PLACEMENT_3D ( 'NONE', #134, #172, #93 ) ;
#152 = DIRECTION ( 'NONE',  ( -3.491481338843133355E-15, 1.224646799147353207E-16, -1.000000000000000000 ) ) ;
#153 = DIRECTION ( 'NONE',  ( 3.491481338843133355E-15, -1.224646799147353207E-16, 1.000000000000000000 ) ) ;
#154 = CARTESIAN_POINT ( 'NONE',  ( 0.0000000000000000000, 0.0000000000000000000, 0.0000000000000000000 ) ) ;
#155 = DIRECTION ( 'NONE',  ( -4.275831445896958607E-31, -1.000000000000000000, -1.224646799147353207E-16 ) ) ;
#156 = PLANE ( 'NONE',  #30 ) ;
#157 = VERTEX_POINT ( 'NONE', #159 ) ;
#158 = CLOSED_SHELL ( 'NONE', ( #106, #102, #114, #165 ) ) ;
#159 = CARTESIAN_POINT ( 'NONE',  ( 4.189777606611760026E-14, 2.335000000000018616, 12.00000000000000000 ) ) ;
#160 =( NAMED_UNIT ( * ) SI_UNIT ( $, .STERADIAN. ) SOLID_ANGLE_UNIT ( ) );
#161 = EDGE_CURVE ( 'NONE', #197, #197, #136, .T. ) ;
#162 = CALENDAR_DATE ( 2021, 2, 12 ) ;
#163 = CC_DESIGN_APPROVAL ( #14, ( #132 ) ) ;
#164 = PERSON_AND_ORGANIZATION_ROLE ( 'creator' ) ;
#165 = ADVANCED_FACE ( 'NONE', ( #113, #17 ), #211, .T. ) ;
#166 = AXIS2_PLACEMENT_3D ( 'NONE', #91, #169, #210 ) ;
#167 = ORIENTED_EDGE ( 'NONE', *, *, #72, .F. ) ;
#168 = EDGE_CURVE ( 'NONE', #157, #157, #28, .T. ) ;
#169 = DIRECTION ( 'NONE',  ( -3.491481338843133355E-15, 1.224646799147353207E-16, -1.000000000000000000 ) ) ;
#170 = AXIS2_PLACEMENT_3D ( 'NONE', #154, #23, #137 ) ;
#171 = CARTESIAN_POINT ( 'NONE',  ( 4.189777606611760026E-14, 1.750969546257732086E-32, 12.00000000000000000 ) ) ;
#172 = DIRECTION ( 'NONE',  ( -3.491481338843133355E-15, 1.224646799147353207E-16, -1.000000000000000000 ) ) ;
#173 = DIRECTION ( 'NONE',  ( 0.0000000000000000000, 1.000000000000000000, 0.0000000000000000000 ) ) ;
#174 = CARTESIAN_POINT ( 'NONE',  ( 2.793185071074506684E-13, -9.797174393178826052E-15, 80.00000000000000000 ) ) ;
#175 = MANIFOLD_SOLID_BREP ( 'Corps-Déplacer/Copier1[1]', #40 ) ;
#176 = APPROVAL_ROLE ( '' ) ;
#177 = CC_DESIGN_PERSON_AND_ORGANIZATION_ASSIGNMENT ( #54, #126, ( #132 ) ) ;
#178 = VERTEX_POINT ( 'NONE', #82 ) ;
#179 = APPLICATION_CONTEXT ( 'configuration controlled 3d designs of mechanical parts and assemblies' ) ;
#180 = PERSON_AND_ORGANIZATION ( #190, #110 ) ;
#181 = AXIS2_PLACEMENT_3D ( 'NONE', #174, #231, #173 ) ;
#182 = DIRECTION ( 'NONE',  ( -3.491481338843133355E-15, 1.224646799147353207E-16, -1.000000000000000000 ) ) ;
#183 = CARTESIAN_POINT ( 'NONE',  ( 0.0000000000000000000, 1.935000000000018483, 0.0000000000000000000 ) ) ;
#184 = APPROVAL_STATUS ( 'not_yet_approved' ) ;
#185 = CIRCLE ( 'NONE', #81, 2.335000000000019948 ) ;
#186 = APPROVAL ( #184, 'UNSPECIFIED' ) ;
#187 = PERSON_AND_ORGANIZATION ( #190, #110 ) ;
#188 = ORIENTED_EDGE ( 'NONE', *, *, #125, .F. ) ;
#189 = DIRECTION ( 'NONE',  ( 0.0000000000000000000, 1.000000000000000000, 0.0000000000000000000 ) ) ;
#190 = PERSON ( 'UNSPECIFIED', 'UNSPECIFIED', 'UNSPECIFIED', ('UNSPECIFIED'), ('UNSPECIFIED'), ('UNSPECIFIED') ) ;
#191 = CARTESIAN_POINT ( 'NONE',  ( -8.273733847810693000E-31, 2.902035179450722223E-32, -2.369691556350150696E-16 ) ) ;
#192 = AXIS2_PLACEMENT_3D ( 'NONE', #119, #73, #228 ) ;
#193 = CARTESIAN_POINT ( 'NONE',  ( 0.0000000000000000000, 0.0000000000000000000, 0.0000000000000000000 ) ) ;
#194 = DIRECTION ( 'NONE',  ( -3.491481338843133355E-15, 1.224646799147353207E-16, -1.000000000000000000 ) ) ;
#195 = LOCAL_TIME ( 13, 56, 35.00000000000000000, #127 ) ;
#196 = APPLICATION_PROTOCOL_DEFINITION ( 'international standard', 'config_control_design', 1994, #69 ) ;
#197 = VERTEX_POINT ( 'NONE', #199 ) ;
#198 = PERSON_AND_ORGANIZATION ( #190, #110 ) ;
#199 = CARTESIAN_POINT ( 'NONE',  ( 2.779219145719134403E-13, 1.999999999999991340, 79.60000000000000853 ) ) ;
#200 = AXIS2_PLACEMENT_3D ( 'NONE', #57, #141, #215 ) ;
#201 = CALENDAR_DATE ( 2021, 2, 12 ) ;
#202 = DATE_AND_TIME ( #225, #195 ) ;
#203 = ORIENTED_EDGE ( 'NONE', *, *, #161, .F. ) ;
#204 = ORIENTED_EDGE ( 'NONE', *, *, #125, .T. ) ;
#205 = ADVANCED_FACE ( 'NONE', ( #39 ), #116, .F. ) ;
#206 = ORIENTED_EDGE ( 'NONE', *, *, #168, .T. ) ;
#207 = LOCAL_TIME ( 13, 56, 35.00000000000000000, #103 ) ;
#208 = EDGE_LOOP ( 'NONE', ( #206 ) ) ;
#209 = PLANE ( 'NONE',  #63 ) ;
#210 = DIRECTION ( 'NONE',  ( 0.0000000000000000000, 1.000000000000000000, 0.0000000000000000000 ) ) ;
#211 = CONICAL_SURFACE ( 'NONE', #101, 1.935000000000018483, 0.7853981633974497223 ) ;
#212 = LOCAL_TIME ( 13, 56, 35.00000000000000000, #34 ) ;
#213 = DIRECTION ( 'NONE',  ( -3.491481338843133355E-15, 1.224646799147353207E-16, -1.000000000000000000 ) ) ;
#214 = DIRECTION ( 'NONE',  ( -4.275831445896958607E-31, -1.000000000000000000, -1.224646799147353207E-16 ) ) ;
#215 = DIRECTION ( 'NONE',  ( 0.0000000000000000000, 1.000000000000000000, 0.0000000000000000000 ) ) ;
#216 = DATE_AND_TIME ( #162, #207 ) ;
#217 = DATE_AND_TIME ( #123, #144 ) ;
#218 = CC_DESIGN_PERSON_AND_ORGANIZATION_ASSIGNMENT ( #187, #164, ( #132 ) ) ;
#219 = AXIS2_PLACEMENT_3D ( 'NONE', #234, #65, #9 ) ;
#220 = CC_DESIGN_DATE_AND_TIME_ASSIGNMENT ( #216, #238, ( #78 ) ) ;
#221 = EDGE_LOOP ( 'NONE', ( #128 ) ) ;
#222 = CIRCLE ( 'NONE', #88, 1.999999999999992228 ) ;
#223 = EDGE_LOOP ( 'NONE', ( #204 ) ) ;
#224 = UNCERTAINTY_MEASURE_WITH_UNIT (LENGTH_MEASURE( 1.000000000000000082E-05 ), #237, 'distance_accuracy_value', 'NONE');
#225 = CALENDAR_DATE ( 2021, 2, 12 ) ;
#226 = ORIENTED_EDGE ( 'NONE', *, *, #161, .T. ) ;
#227 = CARTESIAN_POINT ( 'NONE',  ( 4.189777606611760026E-14, -1.469576158976823947E-15, 12.00000000000000000 ) ) ;
#228 = DIRECTION ( 'NONE',  ( 0.0000000000000000000, 1.000000000000000000, 0.0000000000000000000 ) ) ;
#229 = CARTESIAN_POINT ( 'NONE',  ( 1.396592535537253145E-15, -4.898587196589411843E-17, 0.3999999999999999112 ) ) ;
#230 = AXIS2_PLACEMENT_3D ( 'NONE', #84, #182, #236 ) ;
#231 = DIRECTION ( 'NONE',  ( -3.491481338843133355E-15, 1.224646799147353207E-16, -1.000000000000000000 ) ) ;
#232 = DIRECTION ( 'NONE',  ( -3.491481338843133355E-15, 1.224646799147353207E-16, -1.000000000000000000 ) ) ;
#233 = DATE_AND_TIME ( #79, #24 ) ;
#234 = CARTESIAN_POINT ( 'NONE',  ( 0.0000000000000000000, 0.0000000000000000000, 0.0000000000000000000 ) ) ;
#235 = CC_DESIGN_PERSON_AND_ORGANIZATION_ASSIGNMENT ( #198, #120, ( #15 ) ) ;
#236 = DIRECTION ( 'NONE',  ( 4.275831445896958607E-31, 1.000000000000000000, 1.224646799147353207E-16 ) ) ;
#237 =( LENGTH_UNIT ( ) NAMED_UNIT ( * ) SI_UNIT ( .MILLI., .METRE. ) );
#238 = DATE_TIME_ROLE ( 'creation_date' ) ;
#239 = APPROVAL_PERSON_ORGANIZATION ( #10, #14, #176 ) ;
#240 = PERSON_AND_ORGANIZATION_ROLE ( 'classification_officer' ) ;
#241 = PRODUCT_DEFINITION_SHAPE ( 'NONE', 'NONE',  #78 ) ;
#242 = CIRCLE ( 'NONE', #70, 2.335000000000019948 ) ;
#243 = EDGE_LOOP ( 'NONE', ( #111 ) ) ;
ENDSEC;
END-ISO-10303-21;
