ISO-10303-21;
HEADER;
FILE_DESCRIPTION (( 'STEP AP203' ),
    '1' );
FILE_NAME ('321692.step',
    '2021-12-02T12:56:34',
    ( '' ),
    ( '' ),
    'SwSTEP 2.0',
    'SolidWorks 2019',
    '' );
FILE_SCHEMA (( 'CONFIG_CONTROL_DESIGN' ));
ENDSEC;

DATA;
#1 = VERTEX_POINT ( 'NONE', #203 ) ;
#2 = AXIS2_PLACEMENT_3D ( 'NONE', #238, #159, #85 ) ;
#3 = AXIS2_PLACEMENT_3D ( 'NONE', #147, #15, #186 ) ;
#4 = CIRCLE ( 'NONE', #231, 2.330000000000020055 ) ;
#5 = PERSON_AND_ORGANIZATION_ROLE ( 'creator' ) ;
#6 = PERSON_AND_ORGANIZATION_ROLE ( 'design_supplier' ) ;
#7 = EDGE_LOOP ( 'NONE', ( #175 ) ) ;
#8 = FACE_OUTER_BOUND ( 'NONE', #44, .T. ) ;
#9 = UNCERTAINTY_MEASURE_WITH_UNIT (LENGTH_MEASURE( 1.000000000000000082E-05 ), #207, 'distance_accuracy_value', 'NONE');
#10 = FACE_BOUND ( 'NONE', #117, .T. ) ;
#11 = APPROVAL ( #36, 'UNSPECIFIED' ) ;
#12 = DIRECTION ( 'NONE',  ( -3.491481338843133355E-15, 1.224646799147353207E-16, -1.000000000000000000 ) ) ;
#13 = DIRECTION ( 'NONE',  ( -4.275831445896958607E-31, -1.000000000000000000, -1.224646799147353207E-16 ) ) ;
#14 = DATE_AND_TIME ( #205, #64 ) ;
#15 = DIRECTION ( 'NONE',  ( -3.491481338843133355E-15, 1.224646799147353207E-16, -1.000000000000000000 ) ) ;
#16 = ADVANCED_FACE ( 'NONE', ( #228, #45 ), #30, .T. ) ;
#17 = CARTESIAN_POINT ( 'NONE',  ( 2.779219145719134403E-13, 1.999999999999991340, 79.60000000000000853 ) ) ;
#18 =( NAMED_UNIT ( * ) PLANE_ANGLE_UNIT ( ) SI_UNIT ( $, .RADIAN. ) );
#19 = COORDINATED_UNIVERSAL_TIME_OFFSET ( 1, 0, .AHEAD. ) ;
#20 = AXIS2_PLACEMENT_3D ( 'NONE', #50, #52, #13 ) ;
#21 = APPROVAL_STATUS ( 'not_yet_approved' ) ;
#22 = EDGE_LOOP ( 'NONE', ( #98 ) ) ;
#23 = CC_DESIGN_DATE_AND_TIME_ASSIGNMENT ( #174, #61, ( #89 ) ) ;
#24 = ORIENTED_EDGE ( 'NONE', *, *, #210, .F. ) ;
#25 = CARTESIAN_POINT ( 'NONE',  ( 4.189777606611760026E-14, 1.747220146801077141E-32, 12.00000000000000000 ) ) ;
#26 = DIRECTION ( 'NONE',  ( 4.275831445896958607E-31, 1.000000000000000000, 1.224646799147353207E-16 ) ) ;
#27 = ADVANCED_FACE ( 'NONE', ( #217 ), #141, .T. ) ;
#28 = AXIS2_PLACEMENT_3D ( 'NONE', #176, #83, #84 ) ;
#29 = PLANE ( 'NONE',  #170 ) ;
#30 = CYLINDRICAL_SURFACE ( 'NONE', #77, 2.330000000000020055 ) ;
#31 = FACE_OUTER_BOUND ( 'NONE', #155, .T. ) ;
#32 = CLOSED_SHELL ( 'NONE', ( #16, #27, #143, #59 ) ) ;
#33 = LOCAL_TIME ( 13, 56, 34.00000000000000000, #229 ) ;
#34 = CC_DESIGN_PERSON_AND_ORGANIZATION_ASSIGNMENT ( #58, #76, ( #43 ) ) ;
#35 = CARTESIAN_POINT ( 'NONE',  ( 0.0000000000000000000, 0.0000000000000000000, 0.0000000000000000000 ) ) ;
#36 = APPROVAL_STATUS ( 'not_yet_approved' ) ;
#37 = AXIS2_PLACEMENT_3D ( 'NONE', #25, #236, #100 ) ;
#38 = PERSON_AND_ORGANIZATION ( #235, #56 ) ;
#39 = SHAPE_DEFINITION_REPRESENTATION ( #200, #86 ) ;
#40 = SECURITY_CLASSIFICATION_LEVEL ( 'unclassified' ) ;
#41 = CIRCLE ( 'NONE', #178, 1.930000000000018812 ) ;
#42 = EDGE_LOOP ( 'NONE', ( #208 ) ) ;
#43 = PRODUCT_DEFINITION ( 'UNKNOWN', '', #168, #122 ) ;
#44 = EDGE_LOOP ( 'NONE', ( #138 ) ) ;
#45 = FACE_OUTER_BOUND ( 'NONE', #81, .T. ) ;
#46 = EDGE_CURVE ( 'NONE', #169, #169, #111, .T. ) ;
#47 = APPROVAL_DATE_TIME ( #115, #54 ) ;
#48 = ORIENTED_EDGE ( 'NONE', *, *, #80, .T. ) ;
#49 = FACE_OUTER_BOUND ( 'NONE', #63, .T. ) ;
#50 = CARTESIAN_POINT ( 'NONE',  ( 4.189777606611760026E-14, 1.747220146801077141E-32, 12.00000000000000000 ) ) ;
#51 = CARTESIAN_POINT ( 'NONE',  ( 2.793185071074506684E-13, 1.199807826129472128E-32, 80.00000000000000000 ) ) ;
#52 = DIRECTION ( 'NONE',  ( 3.491481338843133355E-15, -1.224646799147353207E-16, 1.000000000000000000 ) ) ;
#53 = FACE_OUTER_BOUND ( 'NONE', #209, .T. ) ;
#54 = APPROVAL ( #21, 'UNSPECIFIED' ) ;
#55 = CARTESIAN_POINT ( 'NONE',  ( 2.793185071074506684E-13, 1.599999999999991207, 80.00000000000000000 ) ) ;
#56 = ORGANIZATION ( 'UNSPECIFIED', 'UNSPECIFIED', '' ) ;
#57 = PERSON_AND_ORGANIZATION_ROLE ( 'design_owner' ) ;
#58 = PERSON_AND_ORGANIZATION ( #235, #56 ) ;
#59 = ADVANCED_FACE ( 'NONE', ( #162, #123 ), #107, .T. ) ;
#60 = AXIS2_PLACEMENT_3D ( 'NONE', #146, #70, #218 ) ;
#61 = DATE_TIME_ROLE ( 'classification_date' ) ;
#62 = ORIENTED_EDGE ( 'NONE', *, *, #192, .F. ) ;
#63 = EDGE_LOOP ( 'NONE', ( #48 ) ) ;
#64 = LOCAL_TIME ( 13, 56, 34.00000000000000000, #110 ) ;
#65 = CARTESIAN_POINT ( 'NONE',  ( 4.189777606611760026E-14, -1.469576158976823947E-15, 12.00000000000000000 ) ) ;
#66 = DIRECTION ( 'NONE',  ( -3.491481338843133355E-15, 1.224646799147353207E-16, -1.000000000000000000 ) ) ;
#67 = DIRECTION ( 'NONE',  ( -3.491481338843133355E-15, 1.224646799147353207E-16, -1.000000000000000000 ) ) ;
#68 = DIRECTION ( 'NONE',  ( 0.0000000000000000000, 1.000000000000000000, 0.0000000000000000000 ) ) ;
#69 =( GEOMETRIC_REPRESENTATION_CONTEXT ( 3 ) GLOBAL_UNCERTAINTY_ASSIGNED_CONTEXT ( ( #9 ) ) GLOBAL_UNIT_ASSIGNED_CONTEXT ( ( #207, #18, #149 ) ) REPRESENTATION_CONTEXT ( 'NONE', 'WORKASPACE' ) );
#70 = DIRECTION ( 'NONE',  ( -3.491481338843133355E-15, 1.224646799147353207E-16, -1.000000000000000000 ) ) ;
#71 = PRODUCT ( '321692', '321692', '', ( #185 ) ) ;
#72 = DATE_AND_TIME ( #204, #221 ) ;
#73 = CIRCLE ( 'NONE', #88, 1.999999999999992228 ) ;
#74 = CC_DESIGN_APPROVAL ( #54, ( #89 ) ) ;
#75 = CC_DESIGN_DATE_AND_TIME_ASSIGNMENT ( #72, #113, ( #43 ) ) ;
#76 = PERSON_AND_ORGANIZATION_ROLE ( 'creator' ) ;
#77 = AXIS2_PLACEMENT_3D ( 'NONE', #237, #180, #144 ) ;
#78 = CIRCLE ( 'NONE', #3, 2.330000000000020055 ) ;
#79 = CC_DESIGN_PERSON_AND_ORGANIZATION_ASSIGNMENT ( #243, #57, ( #71 ) ) ;
#80 = EDGE_CURVE ( 'NONE', #108, #108, #4, .T. ) ;
#81 = EDGE_LOOP ( 'NONE', ( #132 ) ) ;
#82 = FACE_BOUND ( 'NONE', #7, .T. ) ;
#83 = DIRECTION ( 'NONE',  ( -3.491481338843133355E-15, 1.224646799147353207E-16, -1.000000000000000000 ) ) ;
#84 = DIRECTION ( 'NONE',  ( 0.0000000000000000000, 1.000000000000000000, 0.0000000000000000000 ) ) ;
#85 = DIRECTION ( 'NONE',  ( -4.275831445896958607E-31, -1.000000000000000000, -1.224646799147353207E-16 ) ) ;
#86 = ADVANCED_BREP_SHAPE_REPRESENTATION ( '321692', ( #118, #173, #206 ), #69 ) ;
#87 = DIRECTION ( 'NONE',  ( -3.491481338843133355E-15, 1.224646799147353207E-16, -1.000000000000000000 ) ) ;
#88 = AXIS2_PLACEMENT_3D ( 'NONE', #202, #12, #183 ) ;
#89 = SECURITY_CLASSIFICATION ( '', '', #40 ) ;
#90 = PERSON_AND_ORGANIZATION ( #235, #56 ) ;
#91 = VERTEX_POINT ( 'NONE', #17 ) ;
#92 = APPROVAL_STATUS ( 'not_yet_approved' ) ;
#93 = DATE_AND_TIME ( #222, #242 ) ;
#94 = APPROVAL_DATE_TIME ( #93, #130 ) ;
#95 = CONICAL_SURFACE ( 'NONE', #233, 1.600000000000000977, 0.7853981633974512766 ) ;
#96 = EDGE_CURVE ( 'NONE', #91, #91, #157, .T. ) ;
#97 = CALENDAR_DATE ( 2021, 2, 12 ) ;
#98 = ORIENTED_EDGE ( 'NONE', *, *, #210, .T. ) ;
#99 = ORIENTED_EDGE ( 'NONE', *, *, #96, .F. ) ;
#100 = DIRECTION ( 'NONE',  ( -4.275831445896958607E-31, -1.000000000000000000, -1.224646799147353207E-16 ) ) ;
#101 = PRODUCT_RELATED_PRODUCT_CATEGORY ( 'detail', '', ( #71 ) ) ;
#102 = PLANE ( 'NONE',  #37 ) ;
#103 = DIRECTION ( 'NONE',  ( -3.491481338843133355E-15, 1.224646799147353207E-16, -1.000000000000000000 ) ) ;
#104 = DIRECTION ( 'NONE',  ( 0.0000000000000000000, 1.000000000000000000, 0.0000000000000000000 ) ) ;
#105 = AXIS2_PLACEMENT_3D ( 'NONE', #215, #126, #121 ) ;
#106 = CIRCLE ( 'NONE', #28, 2.330000000000020055 ) ;
#107 = CONICAL_SURFACE ( 'NONE', #2, 1.930000000000018812, 0.7853981633974498333 ) ;
#108 = VERTEX_POINT ( 'NONE', #219 ) ;
#109 = DIRECTION ( 'NONE',  ( 0.0000000000000000000, 0.0000000000000000000, 1.000000000000000000 ) ) ;
#110 = COORDINATED_UNIVERSAL_TIME_OFFSET ( 1, 0, .AHEAD. ) ;
#111 = CIRCLE ( 'NONE', #105, 1.600000000000000977 ) ;
#112 = APPROVAL_DATE_TIME ( #14, #11 ) ;
#113 = DATE_TIME_ROLE ( 'creation_date' ) ;
#114 = AXIS2_PLACEMENT_3D ( 'NONE', #179, #234, #68 ) ;
#115 = DATE_AND_TIME ( #97, #158 ) ;
#116 = ORIENTED_EDGE ( 'NONE', *, *, #226, .T. ) ;
#117 = EDGE_LOOP ( 'NONE', ( #135 ) ) ;
#118 = MANIFOLD_SOLID_BREP ( 'Corps-Déplacer/Copier1[1]', #182 ) ;
#119 = APPLICATION_CONTEXT ( 'configuration controlled 3d designs of mechanical parts and assemblies' ) ;
#120 = CYLINDRICAL_SURFACE ( 'NONE', #134, 1.999999999999996669 ) ;
#121 = DIRECTION ( 'NONE',  ( 0.0000000000000000000, 1.000000000000000000, 0.0000000000000000000 ) ) ;
#122 = DESIGN_CONTEXT ( 'detailed design', #184, 'design' ) ;
#123 = FACE_BOUND ( 'NONE', #191, .T. ) ;
#124 = CC_DESIGN_SECURITY_CLASSIFICATION ( #89, ( #168 ) ) ;
#125 = CC_DESIGN_PERSON_AND_ORGANIZATION_ASSIGNMENT ( #190, #6, ( #168 ) ) ;
#126 = DIRECTION ( 'NONE',  ( -3.491481338843133355E-15, 1.224646799147353207E-16, -1.000000000000000000 ) ) ;
#127 = PLANE ( 'NONE',  #193 ) ;
#128 = COORDINATED_UNIVERSAL_TIME_OFFSET ( 1, 0, .AHEAD. ) ;
#129 = DIRECTION ( 'NONE',  ( 1.000000000000000000, 0.0000000000000000000, 0.0000000000000000000 ) ) ;
#130 = APPROVAL ( #92, 'UNSPECIFIED' ) ;
#131 = APPLICATION_PROTOCOL_DEFINITION ( 'international standard', 'config_control_design', 1994, #184 ) ;
#132 = ORIENTED_EDGE ( 'NONE', *, *, #226, .F. ) ;
#133 = EDGE_LOOP ( 'NONE', ( #116 ) ) ;
#134 = AXIS2_PLACEMENT_3D ( 'NONE', #156, #103, #26 ) ;
#135 = ORIENTED_EDGE ( 'NONE', *, *, #192, .T. ) ;
#136 = CALENDAR_DATE ( 2021, 2, 12 ) ;
#137 = PERSON_AND_ORGANIZATION_ROLE ( 'classification_officer' ) ;
#138 = ORIENTED_EDGE ( 'NONE', *, *, #177, .T. ) ;
#139 = CC_DESIGN_APPROVAL ( #130, ( #43 ) ) ;
#140 = DIRECTION ( 'NONE',  ( 0.0000000000000000000, 1.000000000000000000, 0.0000000000000000000 ) ) ;
#141 = PLANE ( 'NONE',  #20 ) ;
#142 = FACE_OUTER_BOUND ( 'NONE', #42, .T. ) ;
#143 = ADVANCED_FACE ( 'NONE', ( #8 ), #29, .T. ) ;
#144 = DIRECTION ( 'NONE',  ( 4.275831445896958607E-31, 1.000000000000000000, 1.224646799147353207E-16 ) ) ;
#145 = CC_DESIGN_APPROVAL ( #11, ( #168 ) ) ;
#146 = CARTESIAN_POINT ( 'NONE',  ( 4.189777606611760026E-14, -1.469576158976823947E-15, 12.00000000000000000 ) ) ;
#147 = CARTESIAN_POINT ( 'NONE',  ( 1.396592535537252750E-15, -4.898587196589410610E-17, 0.3999999999999998002 ) ) ;
#148 = CC_DESIGN_PERSON_AND_ORGANIZATION_ASSIGNMENT ( #212, #137, ( #89 ) ) ;
#149 =( NAMED_UNIT ( * ) SI_UNIT ( $, .STERADIAN. ) SOLID_ANGLE_UNIT ( ) );
#150 = APPROVAL_ROLE ( '' ) ;
#151 = APPROVAL_ROLE ( '' ) ;
#152 = ADVANCED_FACE ( 'NONE', ( #163, #82 ), #95, .T. ) ;
#153 = APPLICATION_PROTOCOL_DEFINITION ( 'international standard', 'config_control_design', 1994, #119 ) ;
#154 = APPROVAL_ROLE ( '' ) ;
#155 = EDGE_LOOP ( 'NONE', ( #224 ) ) ;
#156 = CARTESIAN_POINT ( 'NONE',  ( 0.0000000000000000000, 0.0000000000000000000, 0.0000000000000000000 ) ) ;
#157 = CIRCLE ( 'NONE', #114, 2.000000000000000888 ) ;
#158 = LOCAL_TIME ( 13, 56, 34.00000000000000000, #19 ) ;
#159 = DIRECTION ( 'NONE',  ( 3.491481338843133355E-15, -1.224646799147353207E-16, 1.000000000000000000 ) ) ;
#160 = CONICAL_SURFACE ( 'NONE', #60, 2.330000000000020055, 0.5235987755983002589 ) ;
#161 = DIRECTION ( 'NONE',  ( 4.275831445896958607E-31, 1.000000000000000000, 1.224646799147353207E-16 ) ) ;
#162 = FACE_OUTER_BOUND ( 'NONE', #133, .T. ) ;
#163 = FACE_OUTER_BOUND ( 'NONE', #213, .T. ) ;
#164 = VERTEX_POINT ( 'NONE', #240 ) ;
#165 = ADVANCED_FACE ( 'NONE', ( #10, #142 ), #160, .T. ) ;
#166 = VERTEX_POINT ( 'NONE', #239 ) ;
#167 = COORDINATED_UNIVERSAL_TIME_OFFSET ( 1, 0, .AHEAD. ) ;
#168 = PRODUCT_DEFINITION_FORMATION_WITH_SPECIFIED_SOURCE ( 'ANY', '', #71, .NOT_KNOWN. ) ;
#169 = VERTEX_POINT ( 'NONE', #55 ) ;
#170 = AXIS2_PLACEMENT_3D ( 'NONE', #196, #66, #181 ) ;
#171 = PERSON_AND_ORGANIZATION ( #235, #56 ) ;
#172 = ORIENTED_EDGE ( 'NONE', *, *, #177, .F. ) ;
#173 = MANIFOLD_SOLID_BREP ( 'Corps-Déplacer/Copier1[2]', #32 ) ;
#174 = DATE_AND_TIME ( #136, #33 ) ;
#175 = ORIENTED_EDGE ( 'NONE', *, *, #46, .T. ) ;
#176 = CARTESIAN_POINT ( 'NONE',  ( 4.189777606611760026E-14, -1.469576158976823947E-15, 12.00000000000000000 ) ) ;
#177 = EDGE_CURVE ( 'NONE', #1, #1, #41, .T. ) ;
#178 = AXIS2_PLACEMENT_3D ( 'NONE', #216, #214, #161 ) ;
#179 = CARTESIAN_POINT ( 'NONE',  ( 2.779219145719134403E-13, -9.748188521212932624E-15, 79.60000000000000853 ) ) ;
#180 = DIRECTION ( 'NONE',  ( -3.491481338843133355E-15, 1.224646799147353207E-16, -1.000000000000000000 ) ) ;
#181 = DIRECTION ( 'NONE',  ( 4.275831445896958607E-31, 1.000000000000000000, 1.224646799147353207E-16 ) ) ;
#182 = CLOSED_SHELL ( 'NONE', ( #201, #165, #197, #152, #188 ) ) ;
#183 = DIRECTION ( 'NONE',  ( 0.0000000000000000000, 1.000000000000000000, 0.0000000000000000000 ) ) ;
#184 = APPLICATION_CONTEXT ( 'configuration controlled 3d designs of mechanical parts and assemblies' ) ;
#185 = MECHANICAL_CONTEXT ( 'NONE', #119, 'mechanical' ) ;
#186 = DIRECTION ( 'NONE',  ( 4.132896876367423380E-31, 1.000000000000000000, 1.163307052023063426E-16 ) ) ;
#187 = EDGE_LOOP ( 'NONE', ( #62 ) ) ;
#188 = ADVANCED_FACE ( 'NONE', ( #53 ), #127, .F. ) ;
#189 = APPROVAL_PERSON_ORGANIZATION ( #225, #54, #154 ) ;
#190 = PERSON_AND_ORGANIZATION ( #235, #56 ) ;
#191 = EDGE_LOOP ( 'NONE', ( #172 ) ) ;
#192 = EDGE_CURVE ( 'NONE', #164, #164, #73, .T. ) ;
#193 = AXIS2_PLACEMENT_3D ( 'NONE', #51, #230, #195 ) ;
#194 = APPROVAL_PERSON_ORGANIZATION ( #90, #130, #150 ) ;
#195 = DIRECTION ( 'NONE',  ( 4.275831445896958607E-31, 1.000000000000000000, 1.224646799147353207E-16 ) ) ;
#196 = CARTESIAN_POINT ( 'NONE',  ( -4.126177345290605019E-31, 1.447268190268706714E-32, -1.181784161177207403E-16 ) ) ;
#197 = ADVANCED_FACE ( 'NONE', ( #198, #31 ), #120, .T. ) ;
#198 = FACE_OUTER_BOUND ( 'NONE', #187, .T. ) ;
#199 = CARTESIAN_POINT ( 'NONE',  ( 2.793185071074506684E-13, -9.797174393178826052E-15, 80.00000000000000000 ) ) ;
#200 = PRODUCT_DEFINITION_SHAPE ( 'NONE', 'NONE',  #43 ) ;
#201 = ADVANCED_FACE ( 'NONE', ( #49 ), #102, .F. ) ;
#202 = CARTESIAN_POINT ( 'NONE',  ( 4.389342568006088565E-14, -1.539574124732673316E-15, 12.57157676649777578 ) ) ;
#203 = CARTESIAN_POINT ( 'NONE',  ( 0.0000000000000000000, 1.930000000000018812, 0.0000000000000000000 ) ) ;
#204 = CALENDAR_DATE ( 2021, 2, 12 ) ;
#205 = CALENDAR_DATE ( 2021, 2, 12 ) ;
#206 = AXIS2_PLACEMENT_3D ( 'NONE', #35, #109, #129 ) ;
#207 =( LENGTH_UNIT ( ) NAMED_UNIT ( * ) SI_UNIT ( .MILLI., .METRE. ) );
#208 = ORIENTED_EDGE ( 'NONE', *, *, #80, .F. ) ;
#209 = EDGE_LOOP ( 'NONE', ( #227 ) ) ;
#210 = EDGE_CURVE ( 'NONE', #166, #166, #106, .T. ) ;
#211 = EDGE_LOOP ( 'NONE', ( #24 ) ) ;
#212 = PERSON_AND_ORGANIZATION ( #235, #56 ) ;
#213 = EDGE_LOOP ( 'NONE', ( #99 ) ) ;
#214 = DIRECTION ( 'NONE',  ( -3.491481338843133355E-15, 1.224646799147353207E-16, -1.000000000000000000 ) ) ;
#215 = CARTESIAN_POINT ( 'NONE',  ( 2.793185071074506684E-13, -9.797174393178826052E-15, 80.00000000000000000 ) ) ;
#216 = CARTESIAN_POINT ( 'NONE',  ( -8.252354690581210037E-31, 2.894536380537413428E-32, -2.363568322354414806E-16 ) ) ;
#217 = FACE_OUTER_BOUND ( 'NONE', #211, .T. ) ;
#218 = DIRECTION ( 'NONE',  ( 0.0000000000000000000, 1.000000000000000000, 0.0000000000000000000 ) ) ;
#219 = CARTESIAN_POINT ( 'NONE',  ( 4.189777606611760026E-14, 2.330000000000018723, 12.00000000000000000 ) ) ;
#220 = CARTESIAN_POINT ( 'NONE',  ( 1.396592535537253737E-15, 2.330000000000020055, 0.4000000000000000777 ) ) ;
#221 = LOCAL_TIME ( 13, 56, 34.00000000000000000, #128 ) ;
#222 = CALENDAR_DATE ( 2021, 2, 12 ) ;
#223 = APPROVAL_PERSON_ORGANIZATION ( #38, #11, #151 ) ;
#224 = ORIENTED_EDGE ( 'NONE', *, *, #96, .T. ) ;
#225 = PERSON_AND_ORGANIZATION ( #235, #56 ) ;
#226 = EDGE_CURVE ( 'NONE', #241, #241, #78, .T. ) ;
#227 = ORIENTED_EDGE ( 'NONE', *, *, #46, .F. ) ;
#228 = FACE_OUTER_BOUND ( 'NONE', #22, .T. ) ;
#229 = COORDINATED_UNIVERSAL_TIME_OFFSET ( 1, 0, .AHEAD. ) ;
#230 = DIRECTION ( 'NONE',  ( -3.491481338843133355E-15, 1.224646799147353207E-16, -1.000000000000000000 ) ) ;
#231 = AXIS2_PLACEMENT_3D ( 'NONE', #65, #67, #104 ) ;
#232 = CC_DESIGN_PERSON_AND_ORGANIZATION_ASSIGNMENT ( #171, #5, ( #168 ) ) ;
#233 = AXIS2_PLACEMENT_3D ( 'NONE', #199, #87, #140 ) ;
#234 = DIRECTION ( 'NONE',  ( -3.491481338843133355E-15, 1.224646799147353207E-16, -1.000000000000000000 ) ) ;
#235 = PERSON ( 'UNSPECIFIED', 'UNSPECIFIED', 'UNSPECIFIED', ('UNSPECIFIED'), ('UNSPECIFIED'), ('UNSPECIFIED') ) ;
#236 = DIRECTION ( 'NONE',  ( 3.491481338843133355E-15, -1.224646799147353207E-16, 1.000000000000000000 ) ) ;
#237 = CARTESIAN_POINT ( 'NONE',  ( 0.0000000000000000000, 0.0000000000000000000, 0.0000000000000000000 ) ) ;
#238 = CARTESIAN_POINT ( 'NONE',  ( -8.252354690581210037E-31, 2.894536380537413428E-32, -2.363568322354414806E-16 ) ) ;
#239 = CARTESIAN_POINT ( 'NONE',  ( 4.189777606611760026E-14, 2.330000000000018723, 12.00000000000000000 ) ) ;
#240 = CARTESIAN_POINT ( 'NONE',  ( 4.389342568006088565E-14, 1.999999999999990452, 12.57157676649777578 ) ) ;
#241 = VERTEX_POINT ( 'NONE', #220 ) ;
#242 = LOCAL_TIME ( 13, 56, 34.00000000000000000, #167 ) ;
#243 = PERSON_AND_ORGANIZATION ( #235, #56 ) ;
ENDSEC;
END-ISO-10303-21;
