ISO-10303-21;
HEADER;
FILE_DESCRIPTION (( 'STEP AP203' ),
    '1' );
FILE_NAME ('321691.step',
    '2021-12-02T12:56:33',
    ( '' ),
    ( '' ),
    'SwSTEP 2.0',
    'SolidWorks 2019',
    '' );
FILE_SCHEMA (( 'CONFIG_CONTROL_DESIGN' ));
ENDSEC;

DATA;
#1 = PERSON_AND_ORGANIZATION ( #26, #216 ) ;
#2 = DIRECTION ( 'NONE',  ( 0.0000000000000000000, 0.0000000000000000000, 1.000000000000000000 ) ) ;
#3 = EDGE_CURVE ( 'NONE', #181, #181, #93, .T. ) ;
#4 = DIRECTION ( 'NONE',  ( -3.491481338843133355E-15, 1.224646799147353207E-16, -1.000000000000000000 ) ) ;
#5 = FACE_OUTER_BOUND ( 'NONE', #195, .T. ) ;
#6 = DIRECTION ( 'NONE',  ( 4.275831445896958607E-31, 1.000000000000000000, 1.224646799147353207E-16 ) ) ;
#7 = CIRCLE ( 'NONE', #57, 1.600000000000000977 ) ;
#8 = ORIENTED_EDGE ( 'NONE', *, *, #77, .T. ) ;
#9 = LOCAL_TIME ( 13, 56, 33.00000000000000000, #35 ) ;
#10 = ADVANCED_FACE ( 'NONE', ( #62 ), #175, .T. ) ;
#11 = ORIENTED_EDGE ( 'NONE', *, *, #120, .T. ) ;
#12 = VERTEX_POINT ( 'NONE', #92 ) ;
#13 = DIRECTION ( 'NONE',  ( -3.491481338843133355E-15, 1.224646799147353207E-16, -1.000000000000000000 ) ) ;
#14 = CYLINDRICAL_SURFACE ( 'NONE', #243, 2.325000000000020162 ) ;
#15 = VERTEX_POINT ( 'NONE', #239 ) ;
#16 = VERTEX_POINT ( 'NONE', #69 ) ;
#17 = ADVANCED_BREP_SHAPE_REPRESENTATION ( '321691', ( #126, #125, #42 ), #79 ) ;
#18 = APPROVAL ( #119, 'UNSPECIFIED' ) ;
#19 = PRODUCT ( '321691', '321691', '', ( #81 ) ) ;
#20 =( NAMED_UNIT ( * ) PLANE_ANGLE_UNIT ( ) SI_UNIT ( $, .RADIAN. ) );
#21 = ORIENTED_EDGE ( 'NONE', *, *, #77, .F. ) ;
#22 = FACE_OUTER_BOUND ( 'NONE', #105, .T. ) ;
#23 = EDGE_LOOP ( 'NONE', ( #41 ) ) ;
#24 = APPROVAL ( #188, 'UNSPECIFIED' ) ;
#25 = CIRCLE ( 'NONE', #87, 2.325000000000020162 ) ;
#26 = PERSON ( 'UNSPECIFIED', 'UNSPECIFIED', 'UNSPECIFIED', ('UNSPECIFIED'), ('UNSPECIFIED'), ('UNSPECIFIED') ) ;
#27 = DIRECTION ( 'NONE',  ( -4.275831445896958607E-31, -1.000000000000000000, -1.224646799147353207E-16 ) ) ;
#28 = EDGE_CURVE ( 'NONE', #15, #15, #7, .T. ) ;
#29 = DIRECTION ( 'NONE',  ( -3.491481338843133355E-15, 1.224646799147353207E-16, -1.000000000000000000 ) ) ;
#30 = DIRECTION ( 'NONE',  ( 0.0000000000000000000, 1.000000000000000000, 0.0000000000000000000 ) ) ;
#31 = DIRECTION ( 'NONE',  ( -3.491481338843133355E-15, 1.224646799147353207E-16, -1.000000000000000000 ) ) ;
#32 = CARTESIAN_POINT ( 'NONE',  ( -8.230975533351727075E-31, 2.887037581624104633E-32, -2.357445088358677930E-16 ) ) ;
#33 = SECURITY_CLASSIFICATION_LEVEL ( 'unclassified' ) ;
#34 = PERSON_AND_ORGANIZATION_ROLE ( 'creator' ) ;
#35 = COORDINATED_UNIVERSAL_TIME_OFFSET ( 1, 0, .AHEAD. ) ;
#36 = DATE_AND_TIME ( #78, #109 ) ;
#37 = AXIS2_PLACEMENT_3D ( 'NONE', #129, #204, #30 ) ;
#38 = DATE_TIME_ROLE ( 'classification_date' ) ;
#39 = EDGE_LOOP ( 'NONE', ( #45 ) ) ;
#40 = PRODUCT_DEFINITION ( 'UNKNOWN', '', #230, #76 ) ;
#41 = ORIENTED_EDGE ( 'NONE', *, *, #120, .F. ) ;
#42 = AXIS2_PLACEMENT_3D ( 'NONE', #210, #2, #170 ) ;
#43 = CARTESIAN_POINT ( 'NONE',  ( -4.115487766675863537E-31, 1.443518790812052316E-32, -1.178722544179338965E-16 ) ) ;
#44 = ORIENTED_EDGE ( 'NONE', *, *, #240, .F. ) ;
#45 = ORIENTED_EDGE ( 'NONE', *, *, #240, .T. ) ;
#46 = DIRECTION ( 'NONE',  ( -3.491481338843133355E-15, 1.224646799147353207E-16, -1.000000000000000000 ) ) ;
#47 = AXIS2_PLACEMENT_3D ( 'NONE', #150, #178, #27 ) ;
#48 = CC_DESIGN_DATE_AND_TIME_ASSIGNMENT ( #36, #191, ( #40 ) ) ;
#49 = CLOSED_SHELL ( 'NONE', ( #115, #143, #10, #153 ) ) ;
#50 = DIRECTION ( 'NONE',  ( 0.0000000000000000000, 1.000000000000000000, 0.0000000000000000000 ) ) ;
#51 = VERTEX_POINT ( 'NONE', #185 ) ;
#52 = FACE_OUTER_BOUND ( 'NONE', #232, .T. ) ;
#53 = CONICAL_SURFACE ( 'NONE', #192, 2.325000000000020162, 0.5235987755982999259 ) ;
#54 = ADVANCED_FACE ( 'NONE', ( #123, #22 ), #53, .T. ) ;
#55 = CARTESIAN_POINT ( 'NONE',  ( 0.0000000000000000000, 0.0000000000000000000, 0.0000000000000000000 ) ) ;
#56 = PERSON_AND_ORGANIZATION ( #26, #216 ) ;
#57 = AXIS2_PLACEMENT_3D ( 'NONE', #172, #4, #63 ) ;
#58 = APPROVAL_ROLE ( '' ) ;
#59 = ADVANCED_FACE ( 'NONE', ( #5 ), #84, .F. ) ;
#60 = PERSON_AND_ORGANIZATION_ROLE ( 'creator' ) ;
#61 = SECURITY_CLASSIFICATION ( '', '', #33 ) ;
#62 = FACE_OUTER_BOUND ( 'NONE', #39, .T. ) ;
#63 = DIRECTION ( 'NONE',  ( 0.0000000000000000000, 1.000000000000000000, 0.0000000000000000000 ) ) ;
#64 = ORIENTED_EDGE ( 'NONE', *, *, #28, .F. ) ;
#65 = APPROVAL ( #155, 'UNSPECIFIED' ) ;
#66 = AXIS2_PLACEMENT_3D ( 'NONE', #205, #108, #242 ) ;
#67 = ORIENTED_EDGE ( 'NONE', *, *, #233, .T. ) ;
#68 = CARTESIAN_POINT ( 'NONE',  ( 4.189777606611760026E-14, -1.469576158976823947E-15, 12.00000000000000000 ) ) ;
#69 = CARTESIAN_POINT ( 'NONE',  ( 4.189777606611760026E-14, 2.325000000000018829, 12.00000000000000000 ) ) ;
#70 = DIRECTION ( 'NONE',  ( -4.275831445896959482E-31, -1.000000000000000000, -1.224646799147353207E-16 ) ) ;
#71 = CARTESIAN_POINT ( 'NONE',  ( 2.793185071074506684E-13, 1.199807826129472128E-32, 80.00000000000000000 ) ) ;
#72 = CC_DESIGN_DATE_AND_TIME_ASSIGNMENT ( #167, #38, ( #61 ) ) ;
#73 = DIRECTION ( 'NONE',  ( 3.491481338843133355E-15, -1.224646799147353207E-16, 1.000000000000000000 ) ) ;
#74 = APPROVAL_PERSON_ORGANIZATION ( #121, #24, #169 ) ;
#75 = PERSON_AND_ORGANIZATION_ROLE ( 'design_owner' ) ;
#76 = DESIGN_CONTEXT ( 'detailed design', #219, 'design' ) ;
#77 = EDGE_CURVE ( 'NONE', #200, #200, #186, .T. ) ;
#78 = CALENDAR_DATE ( 2021, 2, 12 ) ;
#79 =( GEOMETRIC_REPRESENTATION_CONTEXT ( 3 ) GLOBAL_UNCERTAINTY_ASSIGNED_CONTEXT ( ( #168 ) ) GLOBAL_UNIT_ASSIGNED_CONTEXT ( ( #100, #20, #211 ) ) REPRESENTATION_CONTEXT ( 'NONE', 'WORKASPACE' ) );
#80 = APPLICATION_PROTOCOL_DEFINITION ( 'international standard', 'config_control_design', 1994, #194 ) ;
#81 = MECHANICAL_CONTEXT ( 'NONE', #194, 'mechanical' ) ;
#82 = AXIS2_PLACEMENT_3D ( 'NONE', #32, #73, #70 ) ;
#83 = EDGE_LOOP ( 'NONE', ( #158 ) ) ;
#84 = PLANE ( 'NONE',  #47 ) ;
#85 = EDGE_CURVE ( 'NONE', #51, #51, #199, .T. ) ;
#86 = DIRECTION ( 'NONE',  ( 0.0000000000000000000, 1.000000000000000000, 0.0000000000000000000 ) ) ;
#87 = AXIS2_PLACEMENT_3D ( 'NONE', #146, #107, #161 ) ;
#88 = ORIENTED_EDGE ( 'NONE', *, *, #28, .T. ) ;
#89 = ORIENTED_EDGE ( 'NONE', *, *, #233, .F. ) ;
#90 = CC_DESIGN_PERSON_AND_ORGANIZATION_ASSIGNMENT ( #139, #34, ( #40 ) ) ;
#91 = VERTEX_POINT ( 'NONE', #237 ) ;
#92 = CARTESIAN_POINT ( 'NONE',  ( 4.189777606611760026E-14, 2.325000000000018829, 12.00000000000000000 ) ) ;
#93 = CIRCLE ( 'NONE', #197, 2.000000000000000888 ) ;
#94 = DIRECTION ( 'NONE',  ( 4.275831445896958607E-31, 1.000000000000000000, 1.224646799147353207E-16 ) ) ;
#95 = ADVANCED_FACE ( 'NONE', ( #113, #148 ), #163, .T. ) ;
#96 = DIRECTION ( 'NONE',  ( 4.275831445896958607E-31, 1.000000000000000000, 1.224646799147353207E-16 ) ) ;
#97 = APPROVAL_DATE_TIME ( #138, #18 ) ;
#98 = CONICAL_SURFACE ( 'NONE', #37, 1.600000000000000977, 0.7853981633974512766 ) ;
#99 = DATE_AND_TIME ( #134, #9 ) ;
#100 =( LENGTH_UNIT ( ) NAMED_UNIT ( * ) SI_UNIT ( .MILLI., .METRE. ) );
#101 = AXIS2_PLACEMENT_3D ( 'NONE', #114, #31, #201 ) ;
#102 = EDGE_LOOP ( 'NONE', ( #11 ) ) ;
#103 = LOCAL_TIME ( 13, 56, 33.00000000000000000, #136 ) ;
#104 = CARTESIAN_POINT ( 'NONE',  ( 4.189777606611760026E-14, -1.469576158976823947E-15, 12.00000000000000000 ) ) ;
#105 = EDGE_LOOP ( 'NONE', ( #89 ) ) ;
#106 = EDGE_LOOP ( 'NONE', ( #21 ) ) ;
#107 = DIRECTION ( 'NONE',  ( -3.491481338843133355E-15, 1.224646799147353207E-16, -1.000000000000000000 ) ) ;
#108 = DIRECTION ( 'NONE',  ( 3.491481338843133355E-15, -1.224646799147353207E-16, 1.000000000000000000 ) ) ;
#109 = LOCAL_TIME ( 13, 56, 33.00000000000000000, #171 ) ;
#110 = CC_DESIGN_PERSON_AND_ORGANIZATION_ASSIGNMENT ( #1, #75, ( #19 ) ) ;
#111 = DIRECTION ( 'NONE',  ( 4.141784826639180914E-31, 1.000000000000000000, 1.165808787618811846E-16 ) ) ;
#112 = PRODUCT_DEFINITION_SHAPE ( 'NONE', 'NONE',  #40 ) ;
#113 = FACE_OUTER_BOUND ( 'NONE', #83, .T. ) ;
#114 = CARTESIAN_POINT ( 'NONE',  ( -8.230975533351727075E-31, 2.887037581624104633E-32, -2.357445088358677930E-16 ) ) ;
#115 = ADVANCED_FACE ( 'NONE', ( #236, #133 ), #14, .T. ) ;
#116 = COORDINATED_UNIVERSAL_TIME_OFFSET ( 1, 0, .AHEAD. ) ;
#117 = CC_DESIGN_APPROVAL ( #24, ( #61 ) ) ;
#118 = PERSON_AND_ORGANIZATION_ROLE ( 'design_supplier' ) ;
#119 = APPROVAL_STATUS ( 'not_yet_approved' ) ;
#120 = EDGE_CURVE ( 'NONE', #12, #12, #203, .T. ) ;
#121 = PERSON_AND_ORGANIZATION ( #26, #216 ) ;
#122 = CC_DESIGN_PERSON_AND_ORGANIZATION_ASSIGNMENT ( #229, #60, ( #230 ) ) ;
#123 = FACE_BOUND ( 'NONE', #212, .T. ) ;
#124 = CLOSED_SHELL ( 'NONE', ( #59, #54, #95, #207, #196 ) ) ;
#125 = MANIFOLD_SOLID_BREP ( 'Corps-Déplacer/Copier1[2]', #49 ) ;
#126 = MANIFOLD_SOLID_BREP ( 'Corps-Déplacer/Copier1[1]', #124 ) ;
#127 = AXIS2_PLACEMENT_3D ( 'NONE', #68, #29, #220 ) ;
#128 = AXIS2_PLACEMENT_3D ( 'NONE', #71, #202, #94 ) ;
#129 = CARTESIAN_POINT ( 'NONE',  ( 2.793185071074506684E-13, -9.797174393178826052E-15, 80.00000000000000000 ) ) ;
#130 = CARTESIAN_POINT ( 'NONE',  ( 0.0000000000000000000, 0.0000000000000000000, 0.0000000000000000000 ) ) ;
#131 = FACE_BOUND ( 'NONE', #157, .T. ) ;
#132 = FACE_OUTER_BOUND ( 'NONE', #159, .T. ) ;
#133 = FACE_OUTER_BOUND ( 'NONE', #106, .T. ) ;
#134 = CALENDAR_DATE ( 2021, 2, 12 ) ;
#135 = CC_DESIGN_PERSON_AND_ORGANIZATION_ASSIGNMENT ( #56, #190, ( #61 ) ) ;
#136 = COORDINATED_UNIVERSAL_TIME_OFFSET ( 1, 0, .AHEAD. ) ;
#137 = CC_DESIGN_APPROVAL ( #18, ( #230 ) ) ;
#138 = DATE_AND_TIME ( #228, #165 ) ;
#139 = PERSON_AND_ORGANIZATION ( #26, #216 ) ;
#140 = CALENDAR_DATE ( 2021, 2, 12 ) ;
#141 = DIRECTION ( 'NONE',  ( -3.491481338843133355E-15, 1.224646799147353207E-16, -1.000000000000000000 ) ) ;
#142 = CC_DESIGN_SECURITY_CLASSIFICATION ( #61, ( #230 ) ) ;
#143 = ADVANCED_FACE ( 'NONE', ( #183 ), #164, .T. ) ;
#144 = FACE_OUTER_BOUND ( 'NONE', #193, .T. ) ;
#145 = CONICAL_SURFACE ( 'NONE', #82, 1.925000000000018918, 0.7853981633974498333 ) ;
#146 = CARTESIAN_POINT ( 'NONE',  ( 4.189777606611760026E-14, -1.469576158976823947E-15, 12.00000000000000000 ) ) ;
#147 = PLANE ( 'NONE',  #128 ) ;
#148 = FACE_OUTER_BOUND ( 'NONE', #177, .T. ) ;
#149 = CC_DESIGN_APPROVAL ( #65, ( #40 ) ) ;
#150 = CARTESIAN_POINT ( 'NONE',  ( 4.189777606611760026E-14, 1.743470747344422743E-32, 12.00000000000000000 ) ) ;
#151 = APPROVAL_DATE_TIME ( #99, #65 ) ;
#152 = COORDINATED_UNIVERSAL_TIME_OFFSET ( 1, 0, .AHEAD. ) ;
#153 = ADVANCED_FACE ( 'NONE', ( #144, #131 ), #145, .T. ) ;
#154 = PERSON_AND_ORGANIZATION ( #26, #216 ) ;
#155 = APPROVAL_STATUS ( 'not_yet_approved' ) ;
#156 = DIRECTION ( 'NONE',  ( 0.0000000000000000000, 1.000000000000000000, 0.0000000000000000000 ) ) ;
#157 = EDGE_LOOP ( 'NONE', ( #44 ) ) ;
#158 = ORIENTED_EDGE ( 'NONE', *, *, #85, .F. ) ;
#159 = EDGE_LOOP ( 'NONE', ( #234 ) ) ;
#160 = CARTESIAN_POINT ( 'NONE',  ( 4.386318856469811060E-14, -1.538513549493948469E-15, 12.56291651245993179 ) ) ;
#161 = DIRECTION ( 'NONE',  ( 0.0000000000000000000, 1.000000000000000000, 0.0000000000000000000 ) ) ;
#162 = CARTESIAN_POINT ( 'NONE',  ( 2.779219145719134403E-13, 1.999999999999991340, 79.60000000000000853 ) ) ;
#163 = CYLINDRICAL_SURFACE ( 'NONE', #198, 1.999999999999996669 ) ;
#164 = PLANE ( 'NONE',  #66 ) ;
#165 = LOCAL_TIME ( 13, 56, 33.00000000000000000, #152 ) ;
#166 = CC_DESIGN_PERSON_AND_ORGANIZATION_ASSIGNMENT ( #209, #118, ( #230 ) ) ;
#167 = DATE_AND_TIME ( #140, #182 ) ;
#168 = UNCERTAINTY_MEASURE_WITH_UNIT (LENGTH_MEASURE( 1.000000000000000082E-05 ), #100, 'distance_accuracy_value', 'NONE');
#169 = APPROVAL_ROLE ( '' ) ;
#170 = DIRECTION ( 'NONE',  ( 1.000000000000000000, 0.0000000000000000000, 0.0000000000000000000 ) ) ;
#171 = COORDINATED_UNIVERSAL_TIME_OFFSET ( 1, 0, .AHEAD. ) ;
#172 = CARTESIAN_POINT ( 'NONE',  ( 2.793185071074506684E-13, -9.797174393178826052E-15, 80.00000000000000000 ) ) ;
#173 = APPROVAL_PERSON_ORGANIZATION ( #154, #65, #226 ) ;
#174 = DIRECTION ( 'NONE',  ( -3.491481338843133355E-15, 1.224646799147353207E-16, -1.000000000000000000 ) ) ;
#175 = PLANE ( 'NONE',  #180 ) ;
#176 = EDGE_LOOP ( 'NONE', ( #88 ) ) ;
#177 = EDGE_LOOP ( 'NONE', ( #217 ) ) ;
#178 = DIRECTION ( 'NONE',  ( 3.491481338843133355E-15, -1.224646799147353207E-16, 1.000000000000000000 ) ) ;
#179 = SHAPE_DEFINITION_REPRESENTATION ( #112, #17 ) ;
#180 = AXIS2_PLACEMENT_3D ( 'NONE', #43, #141, #6 ) ;
#181 = VERTEX_POINT ( 'NONE', #162 ) ;
#182 = LOCAL_TIME ( 13, 56, 33.00000000000000000, #116 ) ;
#183 = FACE_OUTER_BOUND ( 'NONE', #23, .T. ) ;
#184 = CARTESIAN_POINT ( 'NONE',  ( 1.396592535537253737E-15, 2.325000000000020162, 0.4000000000000000777 ) ) ;
#185 = CARTESIAN_POINT ( 'NONE',  ( 4.386318856469811060E-14, 1.999999999999990452, 12.56291651245993179 ) ) ;
#186 = CIRCLE ( 'NONE', #187, 2.325000000000020162 ) ;
#187 = AXIS2_PLACEMENT_3D ( 'NONE', #225, #218, #111 ) ;
#188 = APPROVAL_STATUS ( 'not_yet_approved' ) ;
#189 = DATE_AND_TIME ( #208, #103 ) ;
#190 = PERSON_AND_ORGANIZATION_ROLE ( 'classification_officer' ) ;
#191 = DATE_TIME_ROLE ( 'creation_date' ) ;
#192 = AXIS2_PLACEMENT_3D ( 'NONE', #104, #174, #86 ) ;
#193 = EDGE_LOOP ( 'NONE', ( #8 ) ) ;
#194 = APPLICATION_CONTEXT ( 'configuration controlled 3d designs of mechanical parts and assemblies' ) ;
#195 = EDGE_LOOP ( 'NONE', ( #67 ) ) ;
#196 = ADVANCED_FACE ( 'NONE', ( #52 ), #147, .F. ) ;
#197 = AXIS2_PLACEMENT_3D ( 'NONE', #231, #215, #156 ) ;
#198 = AXIS2_PLACEMENT_3D ( 'NONE', #55, #223, #241 ) ;
#199 = CIRCLE ( 'NONE', #238, 1.999999999999992228 ) ;
#200 = VERTEX_POINT ( 'NONE', #184 ) ;
#201 = DIRECTION ( 'NONE',  ( 4.275831445896959482E-31, 1.000000000000000000, 1.224646799147353207E-16 ) ) ;
#202 = DIRECTION ( 'NONE',  ( -3.491481338843133355E-15, 1.224646799147353207E-16, -1.000000000000000000 ) ) ;
#203 = CIRCLE ( 'NONE', #127, 2.325000000000020162 ) ;
#204 = DIRECTION ( 'NONE',  ( -3.491481338843133355E-15, 1.224646799147353207E-16, -1.000000000000000000 ) ) ;
#205 = CARTESIAN_POINT ( 'NONE',  ( 4.189777606611760026E-14, 1.743470747344422743E-32, 12.00000000000000000 ) ) ;
#206 = APPLICATION_PROTOCOL_DEFINITION ( 'international standard', 'config_control_design', 1994, #219 ) ;
#207 = ADVANCED_FACE ( 'NONE', ( #132, #221 ), #98, .T. ) ;
#208 = CALENDAR_DATE ( 2021, 2, 12 ) ;
#209 = PERSON_AND_ORGANIZATION ( #26, #216 ) ;
#210 = CARTESIAN_POINT ( 'NONE',  ( 0.0000000000000000000, 0.0000000000000000000, 0.0000000000000000000 ) ) ;
#211 =( NAMED_UNIT ( * ) SI_UNIT ( $, .STERADIAN. ) SOLID_ANGLE_UNIT ( ) );
#212 = EDGE_LOOP ( 'NONE', ( #213 ) ) ;
#213 = ORIENTED_EDGE ( 'NONE', *, *, #85, .T. ) ;
#214 = APPROVAL_DATE_TIME ( #189, #24 ) ;
#215 = DIRECTION ( 'NONE',  ( -3.491481338843133355E-15, 1.224646799147353207E-16, -1.000000000000000000 ) ) ;
#216 = ORGANIZATION ( 'UNSPECIFIED', 'UNSPECIFIED', '' ) ;
#217 = ORIENTED_EDGE ( 'NONE', *, *, #3, .T. ) ;
#218 = DIRECTION ( 'NONE',  ( -3.491481338843133355E-15, 1.224646799147353207E-16, -1.000000000000000000 ) ) ;
#219 = APPLICATION_CONTEXT ( 'configuration controlled 3d designs of mechanical parts and assemblies' ) ;
#220 = DIRECTION ( 'NONE',  ( 0.0000000000000000000, 1.000000000000000000, 0.0000000000000000000 ) ) ;
#221 = FACE_BOUND ( 'NONE', #176, .T. ) ;
#222 = PRODUCT_RELATED_PRODUCT_CATEGORY ( 'detail', '', ( #19 ) ) ;
#223 = DIRECTION ( 'NONE',  ( -3.491481338843133355E-15, 1.224646799147353207E-16, -1.000000000000000000 ) ) ;
#224 = CIRCLE ( 'NONE', #101, 1.925000000000018918 ) ;
#225 = CARTESIAN_POINT ( 'NONE',  ( 1.396592535537252750E-15, -4.898587196589410610E-17, 0.3999999999999998002 ) ) ;
#226 = APPROVAL_ROLE ( '' ) ;
#227 = PERSON_AND_ORGANIZATION ( #26, #216 ) ;
#228 = CALENDAR_DATE ( 2021, 2, 12 ) ;
#229 = PERSON_AND_ORGANIZATION ( #26, #216 ) ;
#230 = PRODUCT_DEFINITION_FORMATION_WITH_SPECIFIED_SOURCE ( 'ANY', '', #19, .NOT_KNOWN. ) ;
#231 = CARTESIAN_POINT ( 'NONE',  ( 2.779219145719134403E-13, -9.748188521212932624E-15, 79.60000000000000853 ) ) ;
#232 = EDGE_LOOP ( 'NONE', ( #64 ) ) ;
#233 = EDGE_CURVE ( 'NONE', #16, #16, #25, .T. ) ;
#234 = ORIENTED_EDGE ( 'NONE', *, *, #3, .F. ) ;
#235 = APPROVAL_PERSON_ORGANIZATION ( #227, #18, #58 ) ;
#236 = FACE_OUTER_BOUND ( 'NONE', #102, .T. ) ;
#237 = CARTESIAN_POINT ( 'NONE',  ( 0.0000000000000000000, 1.925000000000018918, 0.0000000000000000000 ) ) ;
#238 = AXIS2_PLACEMENT_3D ( 'NONE', #160, #13, #50 ) ;
#239 = CARTESIAN_POINT ( 'NONE',  ( 2.793185071074506684E-13, 1.599999999999991207, 80.00000000000000000 ) ) ;
#240 = EDGE_CURVE ( 'NONE', #91, #91, #224, .T. ) ;
#241 = DIRECTION ( 'NONE',  ( 4.275831445896958607E-31, 1.000000000000000000, 1.224646799147353207E-16 ) ) ;
#242 = DIRECTION ( 'NONE',  ( -4.275831445896958607E-31, -1.000000000000000000, -1.224646799147353207E-16 ) ) ;
#243 = AXIS2_PLACEMENT_3D ( 'NONE', #130, #46, #96 ) ;
ENDSEC;
END-ISO-10303-21;
