ISO-10303-21;
HEADER;
FILE_DESCRIPTION (( 'STEP AP203' ),
    '1' );
FILE_NAME ('321690.step',
    '2021-12-02T12:56:33',
    ( '' ),
    ( '' ),
    'SwSTEP 2.0',
    'SolidWorks 2019',
    '' );
FILE_SCHEMA (( 'CONFIG_CONTROL_DESIGN' ));
ENDSEC;

DATA;
#1 = AXIS2_PLACEMENT_3D ( 'NONE', #211, #111, #129 ) ;
#2 = CARTESIAN_POINT ( 'NONE',  ( 4.189777606611760026E-14, 2.320000000000018492, 12.00000000000000000 ) ) ;
#3 = PERSON ( 'UNSPECIFIED', 'UNSPECIFIED', 'UNSPECIFIED', ('UNSPECIFIED'), ('UNSPECIFIED'), ('UNSPECIFIED') ) ;
#4 = PERSON_AND_ORGANIZATION_ROLE ( 'design_supplier' ) ;
#5 = ADVANCED_FACE ( 'NONE', ( #136 ), #219, .F. ) ;
#6 = PERSON_AND_ORGANIZATION_ROLE ( 'creator' ) ;
#7 = PRODUCT_DEFINITION_FORMATION_WITH_SPECIFIED_SOURCE ( 'ANY', '', #176, .NOT_KNOWN. ) ;
#8 = ADVANCED_FACE ( 'NONE', ( #103 ), #157, .T. ) ;
#9 = ORIENTED_EDGE ( 'NONE', *, *, #88, .T. ) ;
#10 = PRODUCT_DEFINITION ( 'UNKNOWN', '', #7, #72 ) ;
#11 = FACE_OUTER_BOUND ( 'NONE', #187, .T. ) ;
#12 = FACE_OUTER_BOUND ( 'NONE', #166, .T. ) ;
#13 = AXIS2_PLACEMENT_3D ( 'NONE', #52, #191, #43 ) ;
#14 = ADVANCED_FACE ( 'NONE', ( #11, #70 ), #133, .T. ) ;
#15 = CIRCLE ( 'NONE', #76, 1.600000000000000977 ) ;
#16 = COORDINATED_UNIVERSAL_TIME_OFFSET ( 1, 0, .AHEAD. ) ;
#17 = DIRECTION ( 'NONE',  ( 4.275831445896958607E-31, 1.000000000000000000, 1.224646799147353207E-16 ) ) ;
#18 = CLOSED_SHELL ( 'NONE', ( #214, #64, #8, #150 ) ) ;
#19 = APPROVAL_ROLE ( '' ) ;
#20 = DIRECTION ( 'NONE',  ( -3.491481338843133355E-15, 1.224646799147353207E-16, -1.000000000000000000 ) ) ;
#21 = COORDINATED_UNIVERSAL_TIME_OFFSET ( 1, 0, .AHEAD. ) ;
#22 = AXIS2_PLACEMENT_3D ( 'NONE', #167, #205, #140 ) ;
#23 = FACE_BOUND ( 'NONE', #179, .T. ) ;
#24 = CC_DESIGN_PERSON_AND_ORGANIZATION_ASSIGNMENT ( #229, #175, ( #7 ) ) ;
#25 = EDGE_LOOP ( 'NONE', ( #242 ) ) ;
#26 = DIRECTION ( 'NONE',  ( -3.491481338843133355E-15, 1.224646799147353207E-16, -1.000000000000000000 ) ) ;
#27 = PERSON_AND_ORGANIZATION ( #3, #152 ) ;
#28 = CARTESIAN_POINT ( 'NONE',  ( -8.209596376122240609E-31, 2.879538782710794742E-32, -2.351321854362941054E-16 ) ) ;
#29 = CIRCLE ( 'NONE', #51, 1.999999999999992228 ) ;
#30 = DATE_TIME_ROLE ( 'classification_date' ) ;
#31 = DIRECTION ( 'NONE',  ( -3.491481338843133355E-15, 1.224646799147353207E-16, -1.000000000000000000 ) ) ;
#32 = CC_DESIGN_PERSON_AND_ORGANIZATION_ASSIGNMENT ( #151, #59, ( #83 ) ) ;
#33 = PERSON_AND_ORGANIZATION ( #3, #152 ) ;
#34 = APPROVAL_STATUS ( 'not_yet_approved' ) ;
#35 = MECHANICAL_CONTEXT ( 'NONE', #171, 'mechanical' ) ;
#36 = ORIENTED_EDGE ( 'NONE', *, *, #94, .T. ) ;
#37 = AXIS2_PLACEMENT_3D ( 'NONE', #141, #26, #158 ) ;
#38 = APPLICATION_PROTOCOL_DEFINITION ( 'international standard', 'config_control_design', 1994, #171 ) ;
#39 = ORIENTED_EDGE ( 'NONE', *, *, #106, .F. ) ;
#40 =( LENGTH_UNIT ( ) NAMED_UNIT ( * ) SI_UNIT ( .MILLI., .METRE. ) );
#41 = PLANE ( 'NONE',  #107 ) ;
#42 = APPROVAL_STATUS ( 'not_yet_approved' ) ;
#43 = DIRECTION ( 'NONE',  ( 4.150711087041421185E-31, 1.000000000000000000, 1.168321306557645677E-16 ) ) ;
#44 = DIRECTION ( 'NONE',  ( 3.491481338843133355E-15, -1.224646799147353207E-16, 1.000000000000000000 ) ) ;
#45 = CLOSED_SHELL ( 'NONE', ( #218, #227, #232, #14, #5 ) ) ;
#46 = DIRECTION ( 'NONE',  ( -3.491481338843133355E-15, 1.224646799147353207E-16, -1.000000000000000000 ) ) ;
#47 = EDGE_LOOP ( 'NONE', ( #124 ) ) ;
#48 = FACE_BOUND ( 'NONE', #142, .T. ) ;
#49 = ORIENTED_EDGE ( 'NONE', *, *, #155, .T. ) ;
#50 = ORIENTED_EDGE ( 'NONE', *, *, #106, .T. ) ;
#51 = AXIS2_PLACEMENT_3D ( 'NONE', #109, #93, #170 ) ;
#52 = CARTESIAN_POINT ( 'NONE',  ( 1.396592535537252750E-15, -4.898587196589410610E-17, 0.3999999999999998002 ) ) ;
#53 = LOCAL_TIME ( 13, 56, 33.00000000000000000, #241 ) ;
#54 = APPROVAL_PERSON_ORGANIZATION ( #118, #212, #19 ) ;
#55 = EDGE_CURVE ( 'NONE', #147, #147, #29, .T. ) ;
#56 = CARTESIAN_POINT ( 'NONE',  ( 2.793185071074506684E-13, 1.599999999999991207, 80.00000000000000000 ) ) ;
#57 = DIRECTION ( 'NONE',  ( 0.0000000000000000000, 1.000000000000000000, 0.0000000000000000000 ) ) ;
#58 = DIRECTION ( 'NONE',  ( -3.491481338843133355E-15, 1.224646799147353207E-16, -1.000000000000000000 ) ) ;
#59 = PERSON_AND_ORGANIZATION_ROLE ( 'classification_officer' ) ;
#60 = APPLICATION_CONTEXT ( 'configuration controlled 3d designs of mechanical parts and assemblies' ) ;
#61 = CARTESIAN_POINT ( 'NONE',  ( 4.189777606611760026E-14, 2.320000000000018492, 12.00000000000000000 ) ) ;
#62 = EDGE_LOOP ( 'NONE', ( #92 ) ) ;
#63 = DATE_AND_TIME ( #231, #201 ) ;
#64 = ADVANCED_FACE ( 'NONE', ( #243 ), #74, .T. ) ;
#65 = DIRECTION ( 'NONE',  ( -3.491481338843133355E-15, 1.224646799147353207E-16, -1.000000000000000000 ) ) ;
#66 = FACE_OUTER_BOUND ( 'NONE', #47, .T. ) ;
#67 = CONICAL_SURFACE ( 'NONE', #173, 2.320000000000019824, 0.5235987755983002589 ) ;
#68 = DIRECTION ( 'NONE',  ( 3.491481338843133355E-15, -1.224646799147353207E-16, 1.000000000000000000 ) ) ;
#69 = CC_DESIGN_PERSON_AND_ORGANIZATION_ASSIGNMENT ( #234, #6, ( #10 ) ) ;
#70 = FACE_BOUND ( 'NONE', #128, .T. ) ;
#71 = EDGE_LOOP ( 'NONE', ( #50 ) ) ;
#72 = DESIGN_CONTEXT ( 'detailed design', #60, 'design' ) ;
#73 = CARTESIAN_POINT ( 'NONE',  ( 2.779219145719134403E-13, -9.748188521212932624E-15, 79.60000000000000853 ) ) ;
#74 = PLANE ( 'NONE',  #1 ) ;
#75 = CC_DESIGN_APPROVAL ( #180, ( #83 ) ) ;
#76 = AXIS2_PLACEMENT_3D ( 'NONE', #146, #31, #228 ) ;
#77 =( NAMED_UNIT ( * ) PLANE_ANGLE_UNIT ( ) SI_UNIT ( $, .RADIAN. ) );
#78 = SECURITY_CLASSIFICATION_LEVEL ( 'unclassified' ) ;
#79 = AXIS2_PLACEMENT_3D ( 'NONE', #239, #65, #222 ) ;
#80 = PERSON_AND_ORGANIZATION ( #3, #152 ) ;
#81 = CC_DESIGN_DATE_AND_TIME_ASSIGNMENT ( #63, #97, ( #10 ) ) ;
#82 =( NAMED_UNIT ( * ) SI_UNIT ( $, .STERADIAN. ) SOLID_ANGLE_UNIT ( ) );
#83 = SECURITY_CLASSIFICATION ( '', '', #78 ) ;
#84 = DIRECTION ( 'NONE',  ( 4.275831445896958607E-31, 1.000000000000000000, 1.224646799147353207E-16 ) ) ;
#85 = APPROVAL_DATE_TIME ( #181, #212 ) ;
#86 = CYLINDRICAL_SURFACE ( 'NONE', #207, 1.999999999999996669 ) ;
#87 = DIRECTION ( 'NONE',  ( 0.0000000000000000000, 1.000000000000000000, 0.0000000000000000000 ) ) ;
#88 = EDGE_CURVE ( 'NONE', #135, #135, #15, .T. ) ;
#89 = CARTESIAN_POINT ( 'NONE',  ( 4.189777606611760026E-14, -1.469576158976823947E-15, 12.00000000000000000 ) ) ;
#90 = DIRECTION ( 'NONE',  ( -4.275831445896958607E-31, -1.000000000000000000, -1.224646799147353207E-16 ) ) ;
#91 = DIRECTION ( 'NONE',  ( 0.0000000000000000000, 1.000000000000000000, 0.0000000000000000000 ) ) ;
#92 = ORIENTED_EDGE ( 'NONE', *, *, #55, .F. ) ;
#93 = DIRECTION ( 'NONE',  ( -3.491481338843133355E-15, 1.224646799147353207E-16, -1.000000000000000000 ) ) ;
#94 = EDGE_CURVE ( 'NONE', #95, #95, #117, .T. ) ;
#95 = VERTEX_POINT ( 'NONE', #131 ) ;
#96 = EDGE_CURVE ( 'NONE', #137, #137, #237, .T. ) ;
#97 = DATE_TIME_ROLE ( 'creation_date' ) ;
#98 = CARTESIAN_POINT ( 'NONE',  ( 4.383295144933533556E-14, 1.999999999999990452, 12.55425625842208781 ) ) ;
#99 = PRODUCT_DEFINITION_SHAPE ( 'NONE', 'NONE',  #10 ) ;
#100 = CC_DESIGN_APPROVAL ( #110, ( #10 ) ) ;
#101 = APPROVAL_STATUS ( 'not_yet_approved' ) ;
#102 = CALENDAR_DATE ( 2021, 2, 12 ) ;
#103 = FACE_OUTER_BOUND ( 'NONE', #25, .T. ) ;
#104 = COORDINATED_UNIVERSAL_TIME_OFFSET ( 1, 0, .AHEAD. ) ;
#105 = ORIENTED_EDGE ( 'NONE', *, *, #94, .F. ) ;
#106 = EDGE_CURVE ( 'NONE', #194, #194, #148, .T. ) ;
#107 = AXIS2_PLACEMENT_3D ( 'NONE', #183, #44, #236 ) ;
#108 = APPROVAL_DATE_TIME ( #123, #180 ) ;
#109 = CARTESIAN_POINT ( 'NONE',  ( 4.383295144933533556E-14, -1.537452974255223622E-15, 12.55425625842208781 ) ) ;
#110 = APPROVAL ( #101, 'UNSPECIFIED' ) ;
#111 = DIRECTION ( 'NONE',  ( 3.491481338843133355E-15, -1.224646799147353207E-16, 1.000000000000000000 ) ) ;
#112 = LOCAL_TIME ( 13, 56, 33.00000000000000000, #16 ) ;
#113 = VERTEX_POINT ( 'NONE', #61 ) ;
#114 = CALENDAR_DATE ( 2021, 2, 12 ) ;
#115 = DATE_AND_TIME ( #149, #112 ) ;
#116 = CARTESIAN_POINT ( 'NONE',  ( 2.793185071074506684E-13, 1.199807826129472128E-32, 80.00000000000000000 ) ) ;
#117 = CIRCLE ( 'NONE', #13, 2.320000000000019824 ) ;
#118 = PERSON_AND_ORGANIZATION ( #3, #152 ) ;
#119 = ORIENTED_EDGE ( 'NONE', *, *, #96, .F. ) ;
#120 = CC_DESIGN_PERSON_AND_ORGANIZATION_ASSIGNMENT ( #80, #4, ( #7 ) ) ;
#121 = DIRECTION ( 'NONE',  ( 0.0000000000000000000, 0.0000000000000000000, 1.000000000000000000 ) ) ;
#122 = SHAPE_DEFINITION_REPRESENTATION ( #99, #209 ) ;
#123 = DATE_AND_TIME ( #184, #53 ) ;
#124 = ORIENTED_EDGE ( 'NONE', *, *, #155, .F. ) ;
#125 = CC_DESIGN_APPROVAL ( #212, ( #7 ) ) ;
#126 = FACE_OUTER_BOUND ( 'NONE', #224, .T. ) ;
#127 = ORIENTED_EDGE ( 'NONE', *, *, #88, .F. ) ;
#128 = EDGE_LOOP ( 'NONE', ( #9 ) ) ;
#129 = DIRECTION ( 'NONE',  ( -4.275831445896958607E-31, -1.000000000000000000, -1.224646799147353207E-16 ) ) ;
#130 = AXIS2_PLACEMENT_3D ( 'NONE', #216, #121, #153 ) ;
#131 = CARTESIAN_POINT ( 'NONE',  ( 1.396592535537253737E-15, 2.320000000000019824, 0.4000000000000000777 ) ) ;
#132 = CARTESIAN_POINT ( 'NONE',  ( 2.779219145719134403E-13, 1.999999999999991340, 79.60000000000000853 ) ) ;
#133 = CONICAL_SURFACE ( 'NONE', #195, 1.600000000000000977, 0.7853981633974512766 ) ;
#134 = COORDINATED_UNIVERSAL_TIME_OFFSET ( 1, 0, .AHEAD. ) ;
#135 = VERTEX_POINT ( 'NONE', #56 ) ;
#136 = FACE_OUTER_BOUND ( 'NONE', #202, .T. ) ;
#137 = VERTEX_POINT ( 'NONE', #2 ) ;
#138 = EDGE_LOOP ( 'NONE', ( #119 ) ) ;
#139 = PERSON_AND_ORGANIZATION_ROLE ( 'design_owner' ) ;
#140 = DIRECTION ( 'NONE',  ( 0.0000000000000000000, 1.000000000000000000, 0.0000000000000000000 ) ) ;
#141 = CARTESIAN_POINT ( 'NONE',  ( 0.0000000000000000000, 0.0000000000000000000, 0.0000000000000000000 ) ) ;
#142 = EDGE_LOOP ( 'NONE', ( #196 ) ) ;
#143 = DIRECTION ( 'NONE',  ( -3.491481338843133355E-15, 1.224646799147353207E-16, -1.000000000000000000 ) ) ;
#144 = DIRECTION ( 'NONE',  ( -3.491481338843133355E-15, 1.224646799147353207E-16, -1.000000000000000000 ) ) ;
#145 = CC_DESIGN_PERSON_AND_ORGANIZATION_ASSIGNMENT ( #177, #139, ( #176 ) ) ;
#146 = CARTESIAN_POINT ( 'NONE',  ( 2.793185071074506684E-13, -9.797174393178826052E-15, 80.00000000000000000 ) ) ;
#147 = VERTEX_POINT ( 'NONE', #98 ) ;
#148 = CIRCLE ( 'NONE', #164, 2.000000000000000888 ) ;
#149 = CALENDAR_DATE ( 2021, 2, 12 ) ;
#150 = ADVANCED_FACE ( 'NONE', ( #12, #48 ), #161, .T. ) ;
#151 = PERSON_AND_ORGANIZATION ( #3, #152 ) ;
#152 = ORGANIZATION ( 'UNSPECIFIED', 'UNSPECIFIED', '' ) ;
#153 = DIRECTION ( 'NONE',  ( 1.000000000000000000, 0.0000000000000000000, 0.0000000000000000000 ) ) ;
#154 = ORIENTED_EDGE ( 'NONE', *, *, #55, .T. ) ;
#155 = EDGE_CURVE ( 'NONE', #113, #113, #221, .T. ) ;
#156 = APPROVAL_DATE_TIME ( #115, #110 ) ;
#157 = PLANE ( 'NONE',  #79 ) ;
#158 = DIRECTION ( 'NONE',  ( 4.275831445896959482E-31, 1.000000000000000000, 1.224646799147353207E-16 ) ) ;
#159 = APPROVAL_ROLE ( '' ) ;
#160 = EDGE_LOOP ( 'NONE', ( #49 ) ) ;
#161 = CONICAL_SURFACE ( 'NONE', #189, 1.920000000000018803, 0.7853981633974498333 ) ;
#162 = FACE_OUTER_BOUND ( 'NONE', #235, .T. ) ;
#163 = CARTESIAN_POINT ( 'NONE',  ( 4.189777606611760026E-14, -1.469576158976823947E-15, 12.00000000000000000 ) ) ;
#164 = AXIS2_PLACEMENT_3D ( 'NONE', #73, #143, #87 ) ;
#165 = APPROVAL_ROLE ( '' ) ;
#166 = EDGE_LOOP ( 'NONE', ( #36 ) ) ;
#167 = CARTESIAN_POINT ( 'NONE',  ( 4.189777606611760026E-14, -1.469576158976823947E-15, 12.00000000000000000 ) ) ;
#168 = FACE_OUTER_BOUND ( 'NONE', #71, .T. ) ;
#169 = DIRECTION ( 'NONE',  ( 4.275831445896958607E-31, 1.000000000000000000, 1.224646799147353207E-16 ) ) ;
#170 = DIRECTION ( 'NONE',  ( 0.0000000000000000000, 1.000000000000000000, 0.0000000000000000000 ) ) ;
#171 = APPLICATION_CONTEXT ( 'configuration controlled 3d designs of mechanical parts and assemblies' ) ;
#172 = CC_DESIGN_DATE_AND_TIME_ASSIGNMENT ( #204, #30, ( #83 ) ) ;
#173 = AXIS2_PLACEMENT_3D ( 'NONE', #89, #46, #91 ) ;
#174 = EDGE_CURVE ( 'NONE', #197, #197, #178, .T. ) ;
#175 = PERSON_AND_ORGANIZATION_ROLE ( 'creator' ) ;
#176 = PRODUCT ( '321690', '321690', '', ( #35 ) ) ;
#177 = PERSON_AND_ORGANIZATION ( #3, #152 ) ;
#178 = CIRCLE ( 'NONE', #240, 1.920000000000018803 ) ;
#179 = EDGE_LOOP ( 'NONE', ( #154 ) ) ;
#180 = APPROVAL ( #42, 'UNSPECIFIED' ) ;
#181 = DATE_AND_TIME ( #102, #186 ) ;
#182 = DIRECTION ( 'NONE',  ( 0.0000000000000000000, 1.000000000000000000, 0.0000000000000000000 ) ) ;
#183 = CARTESIAN_POINT ( 'NONE',  ( 4.189777606611760026E-14, 1.739721347887768072E-32, 12.00000000000000000 ) ) ;
#184 = CALENDAR_DATE ( 2021, 2, 12 ) ;
#185 = FACE_OUTER_BOUND ( 'NONE', #160, .T. ) ;
#186 = LOCAL_TIME ( 13, 56, 33.00000000000000000, #104 ) ;
#187 = EDGE_LOOP ( 'NONE', ( #39 ) ) ;
#188 = CARTESIAN_POINT ( 'NONE',  ( -8.209596376122240609E-31, 2.879538782710794742E-32, -2.351321854362941054E-16 ) ) ;
#189 = AXIS2_PLACEMENT_3D ( 'NONE', #188, #68, #90 ) ;
#190 = PRODUCT_RELATED_PRODUCT_CATEGORY ( 'detail', '', ( #176 ) ) ;
#191 = DIRECTION ( 'NONE',  ( -3.491481338843133355E-15, 1.224646799147353207E-16, -1.000000000000000000 ) ) ;
#192 = APPROVAL_PERSON_ORGANIZATION ( #33, #110, #159 ) ;
#193 = CARTESIAN_POINT ( 'NONE',  ( 0.0000000000000000000, 0.0000000000000000000, 0.0000000000000000000 ) ) ;
#194 = VERTEX_POINT ( 'NONE', #132 ) ;
#195 = AXIS2_PLACEMENT_3D ( 'NONE', #198, #20, #182 ) ;
#196 = ORIENTED_EDGE ( 'NONE', *, *, #174, .F. ) ;
#197 = VERTEX_POINT ( 'NONE', #220 ) ;
#198 = CARTESIAN_POINT ( 'NONE',  ( 2.793185071074506684E-13, -9.797174393178826052E-15, 80.00000000000000000 ) ) ;
#199 = APPROVAL_PERSON_ORGANIZATION ( #27, #180, #165 ) ;
#200 = APPLICATION_PROTOCOL_DEFINITION ( 'international standard', 'config_control_design', 1994, #60 ) ;
#201 = LOCAL_TIME ( 13, 56, 33.00000000000000000, #21 ) ;
#202 = EDGE_LOOP ( 'NONE', ( #127 ) ) ;
#203 = CYLINDRICAL_SURFACE ( 'NONE', #37, 2.320000000000019824 ) ;
#204 = DATE_AND_TIME ( #114, #217 ) ;
#205 = DIRECTION ( 'NONE',  ( -3.491481338843133355E-15, 1.224646799147353207E-16, -1.000000000000000000 ) ) ;
#206 = MANIFOLD_SOLID_BREP ( 'Corps-Déplacer/Copier1[2]', #18 ) ;
#207 = AXIS2_PLACEMENT_3D ( 'NONE', #193, #58, #17 ) ;
#208 = FACE_OUTER_BOUND ( 'NONE', #62, .T. ) ;
#209 = ADVANCED_BREP_SHAPE_REPRESENTATION ( '321690', ( #210, #206, #130 ), #223 ) ;
#210 = MANIFOLD_SOLID_BREP ( 'Corps-Déplacer/Copier1[1]', #45 ) ;
#211 = CARTESIAN_POINT ( 'NONE',  ( 4.189777606611760026E-14, 1.739721347887768072E-32, 12.00000000000000000 ) ) ;
#212 = APPROVAL ( #34, 'UNSPECIFIED' ) ;
#213 = AXIS2_PLACEMENT_3D ( 'NONE', #163, #215, #57 ) ;
#214 = ADVANCED_FACE ( 'NONE', ( #162, #126 ), #203, .T. ) ;
#215 = DIRECTION ( 'NONE',  ( -3.491481338843133355E-15, 1.224646799147353207E-16, -1.000000000000000000 ) ) ;
#216 = CARTESIAN_POINT ( 'NONE',  ( 0.0000000000000000000, 0.0000000000000000000, 0.0000000000000000000 ) ) ;
#217 = LOCAL_TIME ( 13, 56, 33.00000000000000000, #134 ) ;
#218 = ADVANCED_FACE ( 'NONE', ( #185 ), #41, .F. ) ;
#219 = PLANE ( 'NONE',  #230 ) ;
#220 = CARTESIAN_POINT ( 'NONE',  ( 0.0000000000000000000, 1.920000000000018803, 0.0000000000000000000 ) ) ;
#221 = CIRCLE ( 'NONE', #22, 2.320000000000019824 ) ;
#222 = DIRECTION ( 'NONE',  ( 4.275831445896958607E-31, 1.000000000000000000, 1.224646799147353207E-16 ) ) ;
#223 =( GEOMETRIC_REPRESENTATION_CONTEXT ( 3 ) GLOBAL_UNCERTAINTY_ASSIGNED_CONTEXT ( ( #238 ) ) GLOBAL_UNIT_ASSIGNED_CONTEXT ( ( #40, #77, #82 ) ) REPRESENTATION_CONTEXT ( 'NONE', 'WORKASPACE' ) );
#224 = EDGE_LOOP ( 'NONE', ( #105 ) ) ;
#225 = CC_DESIGN_SECURITY_CLASSIFICATION ( #83, ( #7 ) ) ;
#226 = DIRECTION ( 'NONE',  ( -3.491481338843133355E-15, 1.224646799147353207E-16, -1.000000000000000000 ) ) ;
#227 = ADVANCED_FACE ( 'NONE', ( #23, #66 ), #67, .T. ) ;
#228 = DIRECTION ( 'NONE',  ( 0.0000000000000000000, 1.000000000000000000, 0.0000000000000000000 ) ) ;
#229 = PERSON_AND_ORGANIZATION ( #3, #152 ) ;
#230 = AXIS2_PLACEMENT_3D ( 'NONE', #116, #144, #84 ) ;
#231 = CALENDAR_DATE ( 2021, 2, 12 ) ;
#232 = ADVANCED_FACE ( 'NONE', ( #208, #168 ), #86, .T. ) ;
#233 = ORIENTED_EDGE ( 'NONE', *, *, #96, .T. ) ;
#234 = PERSON_AND_ORGANIZATION ( #3, #152 ) ;
#235 = EDGE_LOOP ( 'NONE', ( #233 ) ) ;
#236 = DIRECTION ( 'NONE',  ( -4.275831445896958607E-31, -1.000000000000000000, -1.224646799147353207E-16 ) ) ;
#237 = CIRCLE ( 'NONE', #213, 2.320000000000019824 ) ;
#238 = UNCERTAINTY_MEASURE_WITH_UNIT (LENGTH_MEASURE( 1.000000000000000082E-05 ), #40, 'distance_accuracy_value', 'NONE');
#239 = CARTESIAN_POINT ( 'NONE',  ( -4.104798188061120304E-31, 1.439769391355397371E-32, -1.175660927181470527E-16 ) ) ;
#240 = AXIS2_PLACEMENT_3D ( 'NONE', #28, #226, #169 ) ;
#241 = COORDINATED_UNIVERSAL_TIME_OFFSET ( 1, 0, .AHEAD. ) ;
#242 = ORIENTED_EDGE ( 'NONE', *, *, #174, .T. ) ;
#243 = FACE_OUTER_BOUND ( 'NONE', #138, .T. ) ;
ENDSEC;
END-ISO-10303-21;
