ISO-10303-21;
HEADER;
FILE_DESCRIPTION (( 'STEP AP203' ),
    '1' );
FILE_NAME ('321689.step',
    '2021-12-02T12:56:32',
    ( '' ),
    ( '' ),
    'SwSTEP 2.0',
    'SolidWorks 2019',
    '' );
FILE_SCHEMA (( 'CONFIG_CONTROL_DESIGN' ));
ENDSEC;

DATA;
#1 = DIRECTION ( 'NONE',  ( 0.0000000000000000000, 1.000000000000000000, 0.0000000000000000000 ) ) ;
#2 = FACE_OUTER_BOUND ( 'NONE', #88, .T. ) ;
#3 = CIRCLE ( 'NONE', #101, 1.600000000000000977 ) ;
#4 = LOCAL_TIME ( 13, 56, 32.00000000000000000, #87 ) ;
#5 = EDGE_CURVE ( 'NONE', #208, #208, #159, .T. ) ;
#6 = CARTESIAN_POINT ( 'NONE',  ( -4.094108609446377071E-31, 1.436019991898742700E-32, -1.172599310183602089E-16 ) ) ;
#7 = DIRECTION ( 'NONE',  ( 3.491481338843133355E-15, -1.224646799147353207E-16, 1.000000000000000000 ) ) ;
#8 = CYLINDRICAL_SURFACE ( 'NONE', #215, 1.999999999999996669 ) ;
#9 = DIRECTION ( 'NONE',  ( 0.0000000000000000000, 1.000000000000000000, 0.0000000000000000000 ) ) ;
#10 = CC_DESIGN_PERSON_AND_ORGANIZATION_ASSIGNMENT ( #38, #71, ( #109 ) ) ;
#11 = VERTEX_POINT ( 'NONE', #161 ) ;
#12 = CARTESIAN_POINT ( 'NONE',  ( 0.0000000000000000000, 1.915000000000018465, 0.0000000000000000000 ) ) ;
#13 = AXIS2_PLACEMENT_3D ( 'NONE', #149, #79, #43 ) ;
#14 = EDGE_LOOP ( 'NONE', ( #125 ) ) ;
#15 = ORIENTED_EDGE ( 'NONE', *, *, #110, .T. ) ;
#16 = VERTEX_POINT ( 'NONE', #200 ) ;
#17 = DESIGN_CONTEXT ( 'detailed design', #73, 'design' ) ;
#18 = APPROVAL ( #196, 'UNSPECIFIED' ) ;
#19 = CC_DESIGN_APPROVAL ( #234, ( #103 ) ) ;
#20 = EDGE_LOOP ( 'NONE', ( #15 ) ) ;
#21 = CARTESIAN_POINT ( 'NONE',  ( 2.779219145719134403E-13, 1.999999999999991340, 79.60000000000000853 ) ) ;
#22 = APPLICATION_CONTEXT ( 'configuration controlled 3d designs of mechanical parts and assemblies' ) ;
#23 = DIRECTION ( 'NONE',  ( -3.491481338843133355E-15, 1.224646799147353207E-16, -1.000000000000000000 ) ) ;
#24 = DIRECTION ( 'NONE',  ( -4.275831445896958607E-31, -1.000000000000000000, -1.224646799147353207E-16 ) ) ;
#25 = FACE_OUTER_BOUND ( 'NONE', #124, .T. ) ;
#26 = CC_DESIGN_PERSON_AND_ORGANIZATION_ASSIGNMENT ( #219, #221, ( #103 ) ) ;
#27 = FACE_OUTER_BOUND ( 'NONE', #107, .T. ) ;
#28 = APPROVAL_PERSON_ORGANIZATION ( #48, #234, #233 ) ;
#29 = CC_DESIGN_PERSON_AND_ORGANIZATION_ASSIGNMENT ( #216, #104, ( #187 ) ) ;
#30 = PRODUCT_DEFINITION_SHAPE ( 'NONE', 'NONE',  #103 ) ;
#31 = COORDINATED_UNIVERSAL_TIME_OFFSET ( 1, 0, .AHEAD. ) ;
#32 = DIRECTION ( 'NONE',  ( -3.491481338843133355E-15, 1.224646799147353207E-16, -1.000000000000000000 ) ) ;
#33 = AXIS2_PLACEMENT_3D ( 'NONE', #212, #7, #166 ) ;
#34 = ORIENTED_EDGE ( 'NONE', *, *, #239, .T. ) ;
#35 = PERSON_AND_ORGANIZATION ( #95, #119 ) ;
#36 = EDGE_LOOP ( 'NONE', ( #40 ) ) ;
#37 = ADVANCED_FACE ( 'NONE', ( #72 ), #147, .F. ) ;
#38 = PERSON_AND_ORGANIZATION ( #95, #119 ) ;
#39 = ORIENTED_EDGE ( 'NONE', *, *, #150, .T. ) ;
#40 = ORIENTED_EDGE ( 'NONE', *, *, #77, .F. ) ;
#41 = FACE_OUTER_BOUND ( 'NONE', #14, .T. ) ;
#42 = DIRECTION ( 'NONE',  ( -3.491481338843133355E-15, 1.224646799147353207E-16, -1.000000000000000000 ) ) ;
#43 = DIRECTION ( 'NONE',  ( 0.0000000000000000000, 1.000000000000000000, 0.0000000000000000000 ) ) ;
#44 = DIRECTION ( 'NONE',  ( 4.275831445896958607E-31, 1.000000000000000000, 1.224646799147353207E-16 ) ) ;
#45 = FACE_BOUND ( 'NONE', #142, .T. ) ;
#46 = VERTEX_POINT ( 'NONE', #53 ) ;
#47 = ADVANCED_FACE ( 'NONE', ( #41, #45 ), #58, .T. ) ;
#48 = PERSON_AND_ORGANIZATION ( #95, #119 ) ;
#49 = APPROVAL_DATE_TIME ( #144, #160 ) ;
#50 = LOCAL_TIME ( 13, 56, 32.00000000000000000, #57 ) ;
#51 = APPROVAL_DATE_TIME ( #126, #18 ) ;
#52 = CARTESIAN_POINT ( 'NONE',  ( 2.793185071074506684E-13, 1.199807826129472128E-32, 80.00000000000000000 ) ) ;
#53 = CARTESIAN_POINT ( 'NONE',  ( 4.189777606611760026E-14, 2.315000000000018598, 12.00000000000000000 ) ) ;
#54 = ORIENTED_EDGE ( 'NONE', *, *, #150, .F. ) ;
#55 = COORDINATED_UNIVERSAL_TIME_OFFSET ( 1, 0, .AHEAD. ) ;
#56 = CONICAL_SURFACE ( 'NONE', #191, 1.915000000000018465, 0.7853981633974497223 ) ;
#57 = COORDINATED_UNIVERSAL_TIME_OFFSET ( 1, 0, .AHEAD. ) ;
#58 = CONICAL_SURFACE ( 'NONE', #13, 1.600000000000000977, 0.7853981633974512766 ) ;
#59 = DIRECTION ( 'NONE',  ( -3.491481338843133355E-15, 1.224646799147353207E-16, -1.000000000000000000 ) ) ;
#60 = DIRECTION ( 'NONE',  ( 4.275831445896958607E-31, 1.000000000000000000, 1.224646799147353207E-16 ) ) ;
#61 = CARTESIAN_POINT ( 'NONE',  ( 4.189777606611760026E-14, 1.735971948431113127E-32, 12.00000000000000000 ) ) ;
#62 = AXIS2_PLACEMENT_3D ( 'NONE', #80, #59, #130 ) ;
#63 = CARTESIAN_POINT ( 'NONE',  ( 0.0000000000000000000, 0.0000000000000000000, 0.0000000000000000000 ) ) ;
#64 = DIRECTION ( 'NONE',  ( -3.491481338843133355E-15, 1.224646799147353207E-16, -1.000000000000000000 ) ) ;
#65 = MECHANICAL_CONTEXT ( 'NONE', #22, 'mechanical' ) ;
#66 = AXIS2_PLACEMENT_3D ( 'NONE', #76, #151, #209 ) ;
#67 = LOCAL_TIME ( 13, 56, 32.00000000000000000, #55 ) ;
#68 =( GEOMETRIC_REPRESENTATION_CONTEXT ( 3 ) GLOBAL_UNCERTAINTY_ASSIGNED_CONTEXT ( ( #140 ) ) GLOBAL_UNIT_ASSIGNED_CONTEXT ( ( #176, #238, #179 ) ) REPRESENTATION_CONTEXT ( 'NONE', 'WORKASPACE' ) );
#69 = APPROVAL_STATUS ( 'not_yet_approved' ) ;
#70 = CC_DESIGN_DATE_AND_TIME_ASSIGNMENT ( #155, #173, ( #103 ) ) ;
#71 = PERSON_AND_ORGANIZATION_ROLE ( 'classification_officer' ) ;
#72 = FACE_OUTER_BOUND ( 'NONE', #224, .T. ) ;
#73 = APPLICATION_CONTEXT ( 'configuration controlled 3d designs of mechanical parts and assemblies' ) ;
#74 = CIRCLE ( 'NONE', #105, 2.315000000000019931 ) ;
#75 = FACE_OUTER_BOUND ( 'NONE', #178, .T. ) ;
#76 = CARTESIAN_POINT ( 'NONE',  ( 4.189777606611760026E-14, -1.469576158976823947E-15, 12.00000000000000000 ) ) ;
#77 = EDGE_CURVE ( 'NONE', #214, #214, #148, .T. ) ;
#78 = FACE_OUTER_BOUND ( 'NONE', #146, .T. ) ;
#79 = DIRECTION ( 'NONE',  ( -3.491481338843133355E-15, 1.224646799147353207E-16, -1.000000000000000000 ) ) ;
#80 = CARTESIAN_POINT ( 'NONE',  ( 4.189777606611760026E-14, -1.469576158976823947E-15, 12.00000000000000000 ) ) ;
#81 = VERTEX_POINT ( 'NONE', #12 ) ;
#82 = APPLICATION_PROTOCOL_DEFINITION ( 'international standard', 'config_control_design', 1994, #22 ) ;
#83 = CIRCLE ( 'NONE', #114, 1.915000000000018465 ) ;
#84 = PERSON_AND_ORGANIZATION_ROLE ( 'design_owner' ) ;
#85 = CARTESIAN_POINT ( 'NONE',  ( 0.0000000000000000000, 0.0000000000000000000, 0.0000000000000000000 ) ) ;
#86 = ORIENTED_EDGE ( 'NONE', *, *, #113, .F. ) ;
#87 = COORDINATED_UNIVERSAL_TIME_OFFSET ( 1, 0, .AHEAD. ) ;
#88 = EDGE_LOOP ( 'NONE', ( #54 ) ) ;
#89 = ORIENTED_EDGE ( 'NONE', *, *, #5, .T. ) ;
#90 = PLANE ( 'NONE',  #33 ) ;
#91 = CLOSED_SHELL ( 'NONE', ( #193, #135, #145, #188 ) ) ;
#92 = DIRECTION ( 'NONE',  ( -3.491481338843133355E-15, 1.224646799147353207E-16, -1.000000000000000000 ) ) ;
#93 = ADVANCED_FACE ( 'NONE', ( #229, #25 ), #8, .T. ) ;
#94 = CARTESIAN_POINT ( 'NONE',  ( -8.188217218892754143E-31, 2.872039983797485400E-32, -2.345198620367204179E-16 ) ) ;
#95 = PERSON ( 'UNSPECIFIED', 'UNSPECIFIED', 'UNSPECIFIED', ('UNSPECIFIED'), ('UNSPECIFIED'), ('UNSPECIFIED') ) ;
#96 = DIRECTION ( 'NONE',  ( 0.0000000000000000000, 1.000000000000000000, 0.0000000000000000000 ) ) ;
#97 = AXIS2_PLACEMENT_3D ( 'NONE', #165, #32, #1 ) ;
#98 = CARTESIAN_POINT ( 'NONE',  ( 4.189777606611760026E-14, -1.469576158976823947E-15, 12.00000000000000000 ) ) ;
#99 = LOCAL_TIME ( 13, 56, 32.00000000000000000, #31 ) ;
#100 = APPLICATION_PROTOCOL_DEFINITION ( 'international standard', 'config_control_design', 1994, #73 ) ;
#101 = AXIS2_PLACEMENT_3D ( 'NONE', #190, #23, #134 ) ;
#102 = CONICAL_SURFACE ( 'NONE', #163, 2.315000000000019931, 0.5235987755982991487 ) ;
#103 = PRODUCT_DEFINITION ( 'UNKNOWN', '', #187, #17 ) ;
#104 = PERSON_AND_ORGANIZATION_ROLE ( 'creator' ) ;
#105 = AXIS2_PLACEMENT_3D ( 'NONE', #131, #111, #168 ) ;
#106 = SECURITY_CLASSIFICATION_LEVEL ( 'unclassified' ) ;
#107 = EDGE_LOOP ( 'NONE', ( #128 ) ) ;
#108 = DATE_TIME_ROLE ( 'classification_date' ) ;
#109 = SECURITY_CLASSIFICATION ( '', '', #106 ) ;
#110 = EDGE_CURVE ( 'NONE', #11, #11, #74, .T. ) ;
#111 = DIRECTION ( 'NONE',  ( -3.491481338843133355E-15, 1.224646799147353207E-16, -1.000000000000000000 ) ) ;
#112 = CARTESIAN_POINT ( 'NONE',  ( 0.0000000000000000000, 0.0000000000000000000, 0.0000000000000000000 ) ) ;
#113 = EDGE_CURVE ( 'NONE', #141, #141, #3, .T. ) ;
#114 = AXIS2_PLACEMENT_3D ( 'NONE', #213, #116, #117 ) ;
#115 = DIRECTION ( 'NONE',  ( 4.275831445896958607E-31, 1.000000000000000000, 1.224646799147353207E-16 ) ) ;
#116 = DIRECTION ( 'NONE',  ( -3.491481338843133355E-15, 1.224646799147353207E-16, -1.000000000000000000 ) ) ;
#117 = DIRECTION ( 'NONE',  ( 4.275831445896958607E-31, 1.000000000000000000, 1.224646799147353207E-16 ) ) ;
#118 = ADVANCED_FACE ( 'NONE', ( #78 ), #133, .F. ) ;
#119 = ORGANIZATION ( 'UNSPECIFIED', 'UNSPECIFIED', '' ) ;
#120 = PERSON_AND_ORGANIZATION ( #95, #119 ) ;
#121 = ADVANCED_BREP_SHAPE_REPRESENTATION ( '321689', ( #186, #183, #206 ), #68 ) ;
#122 = CC_DESIGN_APPROVAL ( #18, ( #187 ) ) ;
#123 = APPROVAL_DATE_TIME ( #204, #234 ) ;
#124 = EDGE_LOOP ( 'NONE', ( #89 ) ) ;
#125 = ORIENTED_EDGE ( 'NONE', *, *, #5, .F. ) ;
#126 = DATE_AND_TIME ( #218, #67 ) ;
#127 = CALENDAR_DATE ( 2021, 2, 12 ) ;
#128 = ORIENTED_EDGE ( 'NONE', *, *, #239, .F. ) ;
#129 = CLOSED_SHELL ( 'NONE', ( #118, #207, #93, #47, #37 ) ) ;
#130 = DIRECTION ( 'NONE',  ( 0.0000000000000000000, 1.000000000000000000, 0.0000000000000000000 ) ) ;
#131 = CARTESIAN_POINT ( 'NONE',  ( 1.396592535537253145E-15, -4.898587196589411843E-17, 0.3999999999999999112 ) ) ;
#132 = FACE_BOUND ( 'NONE', #203, .T. ) ;
#133 = PLANE ( 'NONE',  #137 ) ;
#134 = DIRECTION ( 'NONE',  ( 0.0000000000000000000, 1.000000000000000000, 0.0000000000000000000 ) ) ;
#135 = ADVANCED_FACE ( 'NONE', ( #2 ), #90, .T. ) ;
#136 = PERSON_AND_ORGANIZATION ( #95, #119 ) ;
#137 = AXIS2_PLACEMENT_3D ( 'NONE', #61, #154, #226 ) ;
#138 = CALENDAR_DATE ( 2021, 2, 12 ) ;
#139 = DIRECTION ( 'NONE',  ( 0.0000000000000000000, 0.0000000000000000000, 1.000000000000000000 ) ) ;
#140 = UNCERTAINTY_MEASURE_WITH_UNIT (LENGTH_MEASURE( 1.000000000000000082E-05 ), #176, 'distance_accuracy_value', 'NONE');
#141 = VERTEX_POINT ( 'NONE', #235 ) ;
#142 = EDGE_LOOP ( 'NONE', ( #225 ) ) ;
#143 = CALENDAR_DATE ( 2021, 2, 12 ) ;
#144 = DATE_AND_TIME ( #162, #4 ) ;
#145 = ADVANCED_FACE ( 'NONE', ( #75 ), #194, .T. ) ;
#146 = EDGE_LOOP ( 'NONE', ( #34 ) ) ;
#147 = PLANE ( 'NONE',  #236 ) ;
#148 = CIRCLE ( 'NONE', #177, 1.999999999999992228 ) ;
#149 = CARTESIAN_POINT ( 'NONE',  ( 2.793185071074506684E-13, -9.797174393178826052E-15, 80.00000000000000000 ) ) ;
#150 = EDGE_CURVE ( 'NONE', #16, #16, #167, .T. ) ;
#151 = DIRECTION ( 'NONE',  ( -3.491481338843133355E-15, 1.224646799147353207E-16, -1.000000000000000000 ) ) ;
#152 = FACE_OUTER_BOUND ( 'NONE', #20, .T. ) ;
#153 = APPROVAL_PERSON_ORGANIZATION ( #136, #18, #174 ) ;
#154 = DIRECTION ( 'NONE',  ( 3.491481338843133355E-15, -1.224646799147353207E-16, 1.000000000000000000 ) ) ;
#155 = DATE_AND_TIME ( #138, #217 ) ;
#156 = CC_DESIGN_PERSON_AND_ORGANIZATION_ASSIGNMENT ( #35, #84, ( #240 ) ) ;
#157 = CARTESIAN_POINT ( 'NONE',  ( 4.380271433397256683E-14, 1.999999999999990452, 12.54559600438424383 ) ) ;
#158 = SHAPE_DEFINITION_REPRESENTATION ( #30, #121 ) ;
#159 = CIRCLE ( 'NONE', #97, 2.000000000000000888 ) ;
#160 = APPROVAL ( #223, 'UNSPECIFIED' ) ;
#161 = CARTESIAN_POINT ( 'NONE',  ( 1.396592535537254131E-15, 2.315000000000019931, 0.4000000000000001887 ) ) ;
#162 = CALENDAR_DATE ( 2021, 2, 12 ) ;
#163 = AXIS2_PLACEMENT_3D ( 'NONE', #98, #172, #9 ) ;
#164 = ORIENTED_EDGE ( 'NONE', *, *, #110, .F. ) ;
#165 = CARTESIAN_POINT ( 'NONE',  ( 2.779219145719134403E-13, -9.748188521212932624E-15, 79.60000000000000853 ) ) ;
#166 = DIRECTION ( 'NONE',  ( -4.275831445896958607E-31, -1.000000000000000000, -1.224646799147353207E-16 ) ) ;
#167 = CIRCLE ( 'NONE', #66, 2.315000000000019931 ) ;
#168 = DIRECTION ( 'NONE',  ( 4.159675905803928911E-31, 1.000000000000000000, 1.170844678710037791E-16 ) ) ;
#169 = FACE_OUTER_BOUND ( 'NONE', #182, .T. ) ;
#170 = CARTESIAN_POINT ( 'NONE',  ( 4.380271433397256683E-14, -1.536392399016498775E-15, 12.54559600438424383 ) ) ;
#171 = CC_DESIGN_APPROVAL ( #160, ( #109 ) ) ;
#172 = DIRECTION ( 'NONE',  ( -3.491481338843133355E-15, 1.224646799147353207E-16, -1.000000000000000000 ) ) ;
#173 = DATE_TIME_ROLE ( 'creation_date' ) ;
#174 = APPROVAL_ROLE ( '' ) ;
#175 = CC_DESIGN_DATE_AND_TIME_ASSIGNMENT ( #205, #108, ( #109 ) ) ;
#176 =( LENGTH_UNIT ( ) NAMED_UNIT ( * ) SI_UNIT ( .MILLI., .METRE. ) );
#177 = AXIS2_PLACEMENT_3D ( 'NONE', #170, #92, #96 ) ;
#178 = EDGE_LOOP ( 'NONE', ( #185 ) ) ;
#179 =( NAMED_UNIT ( * ) SI_UNIT ( $, .STERADIAN. ) SOLID_ANGLE_UNIT ( ) );
#180 = PRODUCT_RELATED_PRODUCT_CATEGORY ( 'detail', '', ( #240 ) ) ;
#181 = DIRECTION ( 'NONE',  ( 1.000000000000000000, 0.0000000000000000000, 0.0000000000000000000 ) ) ;
#182 = EDGE_LOOP ( 'NONE', ( #164 ) ) ;
#183 = MANIFOLD_SOLID_BREP ( 'Corps-Déplacer/Copier1[2]', #91 ) ;
#184 = PERSON_AND_ORGANIZATION ( #95, #119 ) ;
#185 = ORIENTED_EDGE ( 'NONE', *, *, #201, .T. ) ;
#186 = MANIFOLD_SOLID_BREP ( 'Corps-Déplacer/Copier1[1]', #129 ) ;
#187 = PRODUCT_DEFINITION_FORMATION_WITH_SPECIFIED_SOURCE ( 'ANY', '', #240, .NOT_KNOWN. ) ;
#188 = ADVANCED_FACE ( 'NONE', ( #152, #132 ), #56, .T. ) ;
#189 = DIRECTION ( 'NONE',  ( -3.491481338843133355E-15, 1.224646799147353207E-16, -1.000000000000000000 ) ) ;
#190 = CARTESIAN_POINT ( 'NONE',  ( 2.793185071074506684E-13, -9.797174393178826052E-15, 80.00000000000000000 ) ) ;
#191 = AXIS2_PLACEMENT_3D ( 'NONE', #94, #231, #24 ) ;
#192 = DIRECTION ( 'NONE',  ( -3.491481338843133355E-15, 1.224646799147353207E-16, -1.000000000000000000 ) ) ;
#193 = ADVANCED_FACE ( 'NONE', ( #210, #169 ), #230, .T. ) ;
#194 = PLANE ( 'NONE',  #197 ) ;
#195 = FACE_BOUND ( 'NONE', #242, .T. ) ;
#196 = APPROVAL_STATUS ( 'not_yet_approved' ) ;
#197 = AXIS2_PLACEMENT_3D ( 'NONE', #6, #192, #227 ) ;
#198 = PERSON_AND_ORGANIZATION_ROLE ( 'design_supplier' ) ;
#199 = ORIENTED_EDGE ( 'NONE', *, *, #201, .F. ) ;
#200 = CARTESIAN_POINT ( 'NONE',  ( 4.189777606611760026E-14, 2.315000000000018598, 12.00000000000000000 ) ) ;
#201 = EDGE_CURVE ( 'NONE', #81, #81, #83, .T. ) ;
#202 = CC_DESIGN_SECURITY_CLASSIFICATION ( #109, ( #187 ) ) ;
#203 = EDGE_LOOP ( 'NONE', ( #199 ) ) ;
#204 = DATE_AND_TIME ( #143, #99 ) ;
#205 = DATE_AND_TIME ( #127, #50 ) ;
#206 = AXIS2_PLACEMENT_3D ( 'NONE', #85, #139, #181 ) ;
#207 = ADVANCED_FACE ( 'NONE', ( #195, #27 ), #102, .T. ) ;
#208 = VERTEX_POINT ( 'NONE', #21 ) ;
#209 = DIRECTION ( 'NONE',  ( 0.0000000000000000000, 1.000000000000000000, 0.0000000000000000000 ) ) ;
#210 = FACE_OUTER_BOUND ( 'NONE', #243, .T. ) ;
#211 = CIRCLE ( 'NONE', #62, 2.315000000000019931 ) ;
#212 = CARTESIAN_POINT ( 'NONE',  ( 4.189777606611760026E-14, 1.735971948431113127E-32, 12.00000000000000000 ) ) ;
#213 = CARTESIAN_POINT ( 'NONE',  ( -8.188217218892754143E-31, 2.872039983797485400E-32, -2.345198620367204179E-16 ) ) ;
#214 = VERTEX_POINT ( 'NONE', #157 ) ;
#215 = AXIS2_PLACEMENT_3D ( 'NONE', #112, #42, #115 ) ;
#216 = PERSON_AND_ORGANIZATION ( #95, #119 ) ;
#217 = LOCAL_TIME ( 13, 56, 32.00000000000000000, #232 ) ;
#218 = CALENDAR_DATE ( 2021, 2, 12 ) ;
#219 = PERSON_AND_ORGANIZATION ( #95, #119 ) ;
#220 = ORIENTED_EDGE ( 'NONE', *, *, #77, .T. ) ;
#221 = PERSON_AND_ORGANIZATION_ROLE ( 'creator' ) ;
#222 = AXIS2_PLACEMENT_3D ( 'NONE', #63, #64, #44 ) ;
#223 = APPROVAL_STATUS ( 'not_yet_approved' ) ;
#224 = EDGE_LOOP ( 'NONE', ( #86 ) ) ;
#225 = ORIENTED_EDGE ( 'NONE', *, *, #113, .T. ) ;
#226 = DIRECTION ( 'NONE',  ( -4.275831445896958607E-31, -1.000000000000000000, -1.224646799147353207E-16 ) ) ;
#227 = DIRECTION ( 'NONE',  ( 4.275831445896958607E-31, 1.000000000000000000, 1.224646799147353207E-16 ) ) ;
#228 = CC_DESIGN_PERSON_AND_ORGANIZATION_ASSIGNMENT ( #120, #198, ( #187 ) ) ;
#229 = FACE_OUTER_BOUND ( 'NONE', #36, .T. ) ;
#230 = CYLINDRICAL_SURFACE ( 'NONE', #222, 2.315000000000019931 ) ;
#231 = DIRECTION ( 'NONE',  ( 3.491481338843133355E-15, -1.224646799147353207E-16, 1.000000000000000000 ) ) ;
#232 = COORDINATED_UNIVERSAL_TIME_OFFSET ( 1, 0, .AHEAD. ) ;
#233 = APPROVAL_ROLE ( '' ) ;
#234 = APPROVAL ( #69, 'UNSPECIFIED' ) ;
#235 = CARTESIAN_POINT ( 'NONE',  ( 2.793185071074506684E-13, 1.599999999999991207, 80.00000000000000000 ) ) ;
#236 = AXIS2_PLACEMENT_3D ( 'NONE', #52, #189, #60 ) ;
#237 = APPROVAL_PERSON_ORGANIZATION ( #184, #160, #241 ) ;
#238 =( NAMED_UNIT ( * ) PLANE_ANGLE_UNIT ( ) SI_UNIT ( $, .RADIAN. ) );
#239 = EDGE_CURVE ( 'NONE', #46, #46, #211, .T. ) ;
#240 = PRODUCT ( '321689', '321689', '', ( #65 ) ) ;
#241 = APPROVAL_ROLE ( '' ) ;
#242 = EDGE_LOOP ( 'NONE', ( #220 ) ) ;
#243 = EDGE_LOOP ( 'NONE', ( #39 ) ) ;
ENDSEC;
END-ISO-10303-21;
